Guitar Tabs
song title    band name

Join Us Today!

Don't strum alone...
be a part of the largest online Christian music community. Browse thousands of guitar tabs and chat w/ musicians like yourself.


It's Free!

This tab has not yet been rated for accuracy.Sorry, but you must be logged in to rate this tab.
Click here to log-in, or you can click here to register.
(Registration is free)

All songs owned by corresponding publishing company. If you make copies of any song on this website, be sure to report your usage to CCLI.
Author/Artist: Pete Stewart
Title: Spinning
Album: Pete Stewart
from www.forefrontrecords.com
Song order:
Verse1
Chorus
Verse 2
Bridge
Solo
Chorusx2
Copyright 1999 Songs From Deck 26/Up in the Mix Music
Out of Twisted Roots Music; Adm. by EMI Christian Music Publishing
Transcribed by Antony Lyon, NZ 
Bad_Ant@zfree.co.nz 

Capo on 1st Fret.
  
Verse 1:
Em7             Am7sus4            C7                                 Em
-0--------------0------------------0----------------------------------0--
-3--------------3------------------0----------------------------------0--
-0--------------0------------------0----------------------------------0--
-0--------------2------------------2----------------------------------2--
-2--------------0------------------3----------------------------------2--
-0--------------x------------------x----------------------------------0--


 
Emin7sus4        D9             Amin          1st time           2nd time
-0---------------0--------------0--------------0---------||--------0----
-0---------------3--------------1--------------0---------||--------1----
-2---------------2--------------2--------------2---------||--------0----
-0---------------0--------------2--------------2---------||--------2----
-2---------------x--------------0--------------0---------||--------3----
-0---------------x--------------x--------------x---------||--------x----


Chorus: 	  D9	             Emin7	                   Bmin
------------------0--|---------------0-----------------------------2--
------------------3--|---------------0-----------------------------3--
------------------2--|---------------0-----------------------------4--
------------------0--|---------------2-----------------------------4--
------------------x--|---------------2-----------------------------2--
------------------x--|---------------0-----------------------------x--


 Am				       C		Dmaj7sus4
-0-------------------------------------0----------------------0-|
-1-------------------------------------1----------------------3-|
-2-------------------------------------0----------------------0-|
-2-------------------------------------2----------------------4-|
-0-------------------------------------3----------------------5-|
-x-------------------------------------x----------------------x-|   :||


Instrumental: (1st time only)
-0-------------0-----------------------------0--------------------0-
-0-------------0-----------------------------0--------------------0-
-7-------------6-----------------------------5--------------------4-
-5-------------5-----------------------------5--------------------5-
-7-------------7-----------------------------7--------------------7-
-0-------------0-----------------------------0--------------------0-



Instrumental: (option from live recording)
-0-------------0-----------------------------0------0--------------0-
-3-------------2-----------------------------0------0--------------0-
-0-------------0-----------------------------5------5--------------4----2h4-
-2-------------2-----------------------------5------0--------------2-
-2-------------4-----------------------------3------4--------------2-
-0-------------0-----------------------------0------0--------------0-


2nd verse

chorus

Bridge:
-0-----------------------0----------------------0----------------------------0-
-1-----------------------1----------------------0----------------------------3-
-0-----------------------0----------------------0----------------------------2-
-2-----------------------2----------------------2----------------------------0-
-3------------ 2~~ ------0----------------------2----------------------------x-
-x-----------------------x----------------------0----------------------------x-



-0-------------------------0------------2-----------2----------------0-
-1-------------------------1------------3-----------3----------------1-
-0-------------------------0------------4-----------2----------------2-
-2-------------------------2------------4-----------0----------------2-
-3----------------2~~------0------------2-----------x----------------0-
-x-------------------------x------------x-----------x----------------x- 


Instrumental: w/delay
Am9                      Emin           Dmaj9        Am              Am9 
------------------------------------------------------------------------
------------------------------------------------------------------------
--------------------------------------/ 7--7 \ 2~~----------------------
-------------4---5----7---7 / 9~~\----------------2--2 / 5--5 / 7~~\ ---
---------7--------------------------------------------------------------
------------------------------------------------------------------------
(repeat chords)
------------------------------------------------------------------------
------------------------------------------------------------------------
--------------------/ 7--7 \ 2~~----------------------4h5p4--4h5/7/9/12-
----4-5-7-7 / 9~~\--------------2--2 / 5--5 / 7~~\ ----------7----------
--7---------------------------------------------------------------------
------------------------------------------------------------------------

To Chorus 2x then to outro

Outro
------------0-----------0---------0-------------------------0-----------------||
------------3-----------2---------1-------------------------3-----------------||
------------0-----------0---------0-------------------------0-----------------||
------------0-----------2---------2-------------------------0-----------------||
------------2-----------0---------3-------------------------2-----------------||
------------0-----------x---------x-------------------------0-----------------||
my mind, my mi--------nd   it's spinning  round  my  mind :|| (repeat and fade)

Comments about this tab

No comments/corrections found. Add your own

Complimentary Christian Ringtones
Dadamobile and CGR have teamed up to bring your favorite Christian artists right to your phone. Sign up today and get 10 complementary ringtones!
Tab Country
Did you know CGR has a sister site w/ country guitar tabs? Well we do! Its called Tab Country. It has a great archive with a lot of country tabs.
Rockin Tabs
Are you looking for a site that has rock guitar tabs? Then Rockintabs.com is the place for you. It is a budding site with many rock guitar tabs. Submit your tab today.
Tab Gallery
Tab Gallery has a compilation of christian, rock, and country tabs all in one place. Come visit us.