Guitar Tabs
song title    band name

Join Us Today!

Don't strum alone...
be a part of the largest online Christian music community. Browse thousands of guitar tabs and chat w/ musicians like yourself.


It's Free!

This tab has been rated a 5.00 out of 5 for accuracy. (1 vote)Sorry, but you must be logged in to rate this tab.
Click here to log-in, or you can click here to register.
(Registration is free)

All songs owned by corresponding publishing company. If you make copies of any song on this website, be sure to report your usage to CCLI.
Author/Artist: Stavesacre
Title: Inclusive
Album: Absolutes
Transcribed by: Luke Pederson
Email: stavesacre12@hotmail.com

**Dropped D Tuning**

p = Palm Mute (right hand/strumming hand)

/ = Slide Up

\ = Slide Down

x = Palm Mute (left hand/chord hand)


Okay, kids...*drum roll*...THE SONG!!! *da-da-DAAAAA*
e---------------------------------------------------------------------------
b---------------------------------------------------------------------------
g-12-----5/7-777---------------5/7-7775---------------5/7-777---------------
d-12-----5/7-777-0-3-5-0-3/5-0-5/7-7775-0-3-5-0-3/5-0-5/7-777-0-3-5-0-3/5-0-
a-10-----3/5-555-0-3-5-0-3/5-0-3/5-5553-0-3-5-0-3/5-0-3/5-555-0-3-5-0-3/5-0-
D----------------0-3-5-0-3/5-0----------0-3-5-0-3/5-0---------0-3-5-0-3/5-0-
 --No Lyrics--

e---------------------------------------------------------------------------
b---------------------------------------------------------------------------
g-5/7-7775---------------5/7-7---------------5/7-7--------------------------
d-5/7-7775-0-3-5-0-3/5-0-5/7-7-5/7-7-0-3/5-0-5/7-7-5/7-7-0-3/5-0------------
a-3/5-5553-0-3-5-0-3/5-0-3/5-5-5/7-7-0-3/5-0-3/5-5-5/7-7-0-3/5-0------------
D----------0-3-5-0-3/5-0-------5/7-7-0-3/5-0-------5/7-7-0-3/5-0------------
 -No Lyrics--                                                                

e---------------------------------------------------------------------------
b---------------------------------------------------------------------------
g-5/7-777---------------5/7-7775---------------5p/7p-7p-7p7\--12------------
d-5/7-777-0-3-5-0-3/5-0-5/7-7775-0-3-5-0-3/5-0-5p/7p-7p-7p7\--12------------
a-3/5-555-0-3-5-0-3/5-0-3/5-5553-0-3-5-0-3/5-0-3p/5p-7p-7p7\--10------------
D---------0-3-5-0-3/5-0----------0-3-5-0-3/5-0------------------------------
                                                "...Like a favorite slave..."

e---------------------------------------------------------------------------
b---------------------------------------------------------------------------
g-5p/7p-7p7p7p5p-----------------------5p/7p-7p7p7p5p-----------------------
d-5p/7p-7p7p7p5p-0p-3p-5p-0p-3p5p-0p0p-5p/7p-7p7p7p5p-0p-3p-5p-0p-3p5p-0p0p-
a-5p/7p-5p5p5p3p-0p-3p-5p-0p-3p5p-0p0p-3p/5p-5p5p5p3p-0p-3p-5p-0p-3p5p-0p0p-
D----------------0p-3p-5p-0p-3p5p-0p0p----------------0p-3p-5p-0p-3p5p-0p0p-
 "...your presence sickens me..."

e---------------------------------------------------------------------------
b---------------------------------------------------------------------------
g-5/7-777---------------5/7-7775---------------5/7-777----------------------
d-5/7-777-0-3-5-0-3/5-0-5/7-7775-0-3-5-0-3/5-0-5/7-777-0-3-5-0-3/5-0--------
a-3/5-555-0-3-5-0-3/5-0-3/5-5553-0-3-5-0-3/5-0-3/5-555-0-3-5-0-3/5-0--------
D---------0-3-5-0-3/5-0----------0-3-5-0-3/5-0---------0-3-5-0-3/5-0--------
     "...born into your bonds..."

e---------------------------------------------------------------------------
b---------------------------------------------------------------------------
g-5/7-7775------------------------------------------------------------------
d-5/7-7775-0-3-5-0-3/5-0--5-0-33-3/8-88888888--5-0-33-3/8-88888888----------
a-3/5-5553-0-3-5-0-3/5-0--5-0-33-3/8-88888888--5-0-33-3/8-88888888----------
D----------0-3-5-0-3/5-0--5-0-33-3/8-88888888--5-0-33-3/8-88888888----------
     "...do you even know what's out there?"

e-----------------------------------------------x---x-----------------------
b---------------------------------------x---x---13--12----------------------
g---------------------------------------11--12--x---x-----------------------
d-5-0-33-3/8-88888888\77777777/88888888-x---x---10--9--0p0p0p3p5p0p---------
a-5-0-33-3/8-88888888\77777777/88888888-9---10--x---x--0p0p0p3p5p0p---------
D-5-0-33-3/8-88888888\77777777/88888888----------------0p0p0p3p5p0p---------
    "...nothing left, no limits to their lies..."

e---------x---x------------------------x---x--------------------------------
b-x---x---13--12---------------x---x---13--12-------------------------------
g-11--12--x---x----------------11--12--x---x--------------------------------
d-x---x---10--9--0p0p0p3p5p0p--x---x---10--9--0p0p0p3p5p0p------------------
a-9---10--x---x--0p0p0p3p5p0p--9---10--x---x--0p0p0p3p5p0p------------------
D----------------0p0p0p3p5p0p-----------------0p0p0p3p5p0p------------------
  "...all that you can see kneels at His feet..."

e---------x---x-------------------------------------------------------------
b-x---x---13--12------------------------------------------------------------
g-11--12--x---x--------------5/7--77-----------------5/7--77----------------
d-x---x---10--9-0p0p0p3p5p0p-5/7--77-5/7--77-0-3/5-0-5/7--77-5/7--77-0-3/5-0
a-9---10--x---x-0p0p0p3p5p0p-3/5--55-5/7--77-0-3/5-0-3/5--55-5/7--77-0-3/5-0
D---------------0p0p0p3p5p0p---------5/7--77-0-3/5-0---------5/7--77-0-3/5-0
  "...all that you could know will praise His name..."

e---------------------------------------------------------------------------
b---------------------------------------------------------------------------
g-5/7-777---------------5/7-7775----------------5p/7p-7p7p7\----------------
d-5/7-777-0-3-5-0-3/5-0-5/7-7775-0-3-5-0-3/5-0--5p/7p-7p7p7\----------------
a-3/5-555-0-3-5-0-3/5-0-3/5-5553-0-3-5-0-3/5-0--3p/5p-5p5p7\----------------
D---------0-3-5-0-3/5-0----------0-3-5-0-3/5-0------------------------------
 --No Lyrics--

 ...next comes the cool harmonics solo that starts w/ "Little finite 
minds..." of which I am totally clueless to.  It ends with "...empty...
needing..." then play:  
e---------------------------------------------------------------------------
b---------------------------------------------------------------------------
g-5p/7p-7p7p7p5p-----------------------5p/7p-7p7p7p5p-----------------------
d-5p/7p-7p7p7p5p-0p-3p-5p-0p-3p5p-0p0p-5p/7p-7p7p7p5p-0p-3p-5p-0p-3p5p-0p0p-
a-3p/5p-5p5p5p3p-0p-3p-5p-0p-3p5p-0p0p-3p/5p-5p5p5p3p-0p-3p-5p-0p-3p5p-0p0p-
D----------------0p-3p-5p-0p-3p5p-0p0p----------------0p-3p-5p-0p-3p5p-0p0p-
   "...kingdoms built from birth..."

e---------------------------------------------------------------------------
b---------------------------------------------------------------------------
g-5/7-777---------------5/7-7775---------------5/7-777----------------------
d-5/7-777-0-3-5-0-3/5-0-5/7-7775-0-3-5-0-3/5-0-5/7-777-0-3-5-0-3/5-0--------
a-3/5-555-0-3-5-0-3/5-0-3/5-5553-0-3-5-0-3/5-0-3/5-555-0-3-5-0-3/5-0--------
D---------0-3-5-0-3/5-0----------0-3-5-0-3/5-0---------0-3-5-0-3/5-0--------
   "...dust to dust and memories..."

e---------------------------------------------------------------------------
b---------------------------------------------------------------------------
g-5/7-7775------------------------------------------------------------------
d-5/7-7775-0-3-5-0-3/5-0--5-0-33-3/8-88888888--5-0-33-3/8-88888888----------
a-3/5-5553-0-3-5-0-3/5-0--5-0-33-3/8-88888888--5-0-33-3/8-88888888----------
D----------0-3-5-0-3/5-0--5-0-33-3/8-88888888--5-0-33-3/8-88888888----------
  "...can you hear God laughing?"

e---------------------------------------------------------------------------
b---------------------------------------------------------------------------
g---------------------------------------------------------------------------
d-5-0-33-3/8-88888888\77777777\66666666--5-0-33-3/8-88888888----------------
a-5-0-33-3/8-88888888\77777777\66666666--5-0-33-3/8-88888888----------------
D-5-0-33-3/8-88888888\77777777\66666666--5-0-33-3/8-88888888----------------
  "...nothing left...no limits to their lies..."

e---------------------------------------------------------------------------
b---------------------------------------------------------------------------
g---------------------------------------------------------------------------
d-5-0-33-3/8-88888888--5-0-33-3/8-88888888\77777777/88888888----------------
a-5-0-33-3/8-88888888--5-0-33-3/8-88888888\77777777/88888888----------------
D-5-0-33-3/8-88888888--5-0-33-3/8-88888888\77777777/88888888----------------
  "They'll bleed you 'till there is nothing left..."

e---------x---x------------------------x---x--------------------------------
b-x---x---13--12---------------x---x---13--12-------------------------------
g-11--12--x---x----------------11--12--x---x--------------------------------
d-x---x---10--9--0p0p0p3p5p0p--x---x---10--9--0p0p0p3p5p0p------------------
a-9---10--x---x--0p0p0p3p5p0p--9---10--x---x--0p0p0p3p5p0p------------------
D----------------0p0p0p3p5p0p-----------------0p0p0p3p5p0p------------------
                               "...all that you can see..."

e---------x---x------------------------x---x--------------------------------
b-x---x---13--12---------------x---x---13--12-------------------------------
g-11--12--x---x----------------11--12--x---x--------------------------------
d-x---x---10--9--0p0p0p3p5p0p--x---x---10--9--0p0p0p3p5p0p------------------
a-9---10--x---x--0p0p0p3p5p0p--9---10--x---x--0p0p0p3p5p0p------------------
D----------------0p0p0p3p5p0p-----------------0p0p0p3p5p0p------------------
  "...in sovereignty..."

e---------------------------------------------------------------------------
b---------------------------------------------------------------------------
g-5/7--77------------------5/7--77------------------------------------------
d-5/7--77-5/7--77-0-3/5-0--5/7--77-5/7--77-0-3/5---0---8--88\3-0---8--88\3-0
a-3/5--55-5/7--77-0-3/5-0--3/5--55-5/7--77-0-3/5---0---8--88\3-0---8--88\3-0
D---------5/7--77-0-3/5-0----------5/7--77-0-3/5-0-0---8--88\3-0---8--88\3-0
 --No Lyrics--

e----------------------------------------------------------------------------
b----------------------------------------------------------------------------
g----------------------5/7--77------------------5/7-77-----------------------
d-8--88\3-0---8--88\30-5/7--77-5/7--77-0-3/5-0--5/7-77-5/7--77-0-3/5----0x---
a-8--88\3-0---8--88\30-3/5--55-5/7--77-0-3/5-0--3/5-55-5/7--77-0-3/5----0x---
D-8--88\3-0---8--88\30---------5/7--77-0-3/5-0---------5/7--77-0-3/5-0--0x---
"...deep unto deep, all creation braces..."

That's it kidz!!

Wow.  This is a totally kicking song, both in lyrics, and music.
Enjoy, and as always, questions, comments, death threats, corrections,
insults, or the casual law suit, send 'em my way! :)

Luke
stavesacre12@hotmail.com

Comments about this tab

No comments/corrections found. Add your own

Complimentary Christian Ringtones
Dadamobile and CGR have teamed up to bring your favorite Christian artists right to your phone. Sign up today and get 10 complementary ringtones!
Tab Country
Did you know CGR has a sister site w/ country guitar tabs? Well we do! Its called Tab Country. It has a great archive with a lot of country tabs.
Rockin Tabs
Are you looking for a site that has rock guitar tabs? Then Rockintabs.com is the place for you. It is a budding site with many rock guitar tabs. Submit your tab today.
Tab Gallery
Tab Gallery has a compilation of christian, rock, and country tabs all in one place. Come visit us.