Guitar Tabs
song title    band name

Join Us Today!

Don't strum alone...
be a part of the largest online Christian music community. Browse thousands of guitar tabs and chat w/ musicians like yourself.


It's Free!

This tab has not yet been rated for accuracy.Sorry, but you must be logged in to rate this tab.
Click here to log-in, or you can click here to register.
(Registration is free)

All songs owned by corresponding publishing company. If you make copies of any song on this website, be sure to report your usage to CCLI.
Song: The Zenith 
Artist: Starflyer 59
by: Jason Martin
tabbed by: Jared Momose

tuning: standard, but tune the low E to a D  (D,A,D,G,B,E)

Bridge:
 (heavy dist.)
 |-------------------------------------------------|x4
t|-------------------------------------------------|
 |-------------12-12-12-12-------------------------|
a|-12-12-12-12-12-12-12-12-12-12-12-12-10-10-10-10-|
 |-12-12-12-12-10-10-10-10-12-12-12-12-10-10-10-10-|
b|-12-12-12-12-10-10-10-10-12-12-12-12-10-10-10-10-|

  (light funky cho.)
 |--------0--------------0---|x2
t|--------4--------------4---|
 |--------3----------4---3---|
a|-4-5----0----0-H4------0---|
 |---------------------------|
b|---------------------------|

Verse:  There is only one chord used in the verse.  The trick is to hit 
        the right notes in the chord!!!
G6=0 (with
   0  another
   0  light
   0  funky
   x  chorus
   x  effect)

[G6
There she goes under blue skies she swirls by, there you

go on the blue side she's on your side I know the low is
                                                     G6]
moving, and there you go under blue skies she swirls by


Bridge x1


Outro:
Gtr1.
  (chorus effect)
 |-0--0/3--3----1-0------0/7--7-3--|x36
t|---------------------------------|
 |---------------------------------|
a|---------------------------------|
 |---------------------------------|
b|---------------------------------|

Gtr 2.
  (heavy dist.)
 |---------------------------------|x34
t|---------------------------------|
 |---------------------------------|
a|-0-0-0-0-0-0-0-0-0-0-0-0-0-0-0-0-|
 |-0-0-0-0-0-0-0-0-2-2-2-2-3-3-3-3-|
b|-3-3-3-3-3-3-3-3-0-0-0-0-2-2-2-2-|

Comments about this tab

No comments/corrections found. Add your own

Complimentary Christian Ringtones
Dadamobile and CGR have teamed up to bring your favorite Christian artists right to your phone. Sign up today and get 10 complementary ringtones!
Tab Country
Did you know CGR has a sister site w/ country guitar tabs? Well we do! Its called Tab Country. It has a great archive with a lot of country tabs.
Rockin Tabs
Are you looking for a site that has rock guitar tabs? Then Rockintabs.com is the place for you. It is a budding site with many rock guitar tabs. Submit your tab today.
Tab Gallery
Tab Gallery has a compilation of christian, rock, and country tabs all in one place. Come visit us.