Guitar Tabs
song title    band name

Join Us Today!

Don't strum alone...
be a part of the largest online Christian music community. Browse thousands of guitar tabs and chat w/ musicians like yourself.


It's Free!

This tab has not yet been rated for accuracy.Sorry, but you must be logged in to rate this tab.
Click here to log-in, or you can click here to register.
(Registration is free)

All songs owned by corresponding publishing company. If you make copies of any song on this website, be sure to report your usage to CCLI.
No New Kinda Story
By Starflyer 59 
>From the album Everybody Makes Mistakes on Tooth and Nail Records
(C)1999 Tooth and Nail Records / Some Blue Collar Songs (ASCAP)
Tabbed by Jonathon Leal

*note* the words to this song are hard to understand, as there is no
lyric sheet in the CD..if you know the lyrics to this song,
please send them to me, and i will re-post this song..

STANDARD TUNING (EADGBE)


INTRO:
C#                            F#
------------------------------------------------
------------------------------------------------
------------------------------------------------
------------------------------------------------
--4---6---8--------4--6--8-------6----8-----6---
4----------------4-------------6---6------6-----

C#                        F#
This is what we want ....(unintelligle)
C#                       F#
This is what we need  ....(unintelligble)

C#           Ab         F#
This aint no new kinda story (repeat)

C#                                           F#
Things are not that bad you know they happen everyday
C#                           F#
This is what we need to...(unintelligble)

C#           Ab        F#
This aint no new kinda story (repeat)


-----------------------------------------------
I could not figure out, for the life of me, how
the little weird rock out part in the the middle goes.
I know it starts in an E-flat, but from there i am lost..
again, if you have any corrections to this, do not be afraid
to send them to me at fuzzbox51@hotmail.com...God bless!
--------------------------------------------------------

Comments about this tab

Agent M0thman - 2006-03-10

I play it this way:

e------
B------
G------
D----3-
A--4---
E------

e------------------------------
B------------------------------
G------------------------------
D------------------------------
A----6--8-----6--8--------8---6
E--4--------4-------4-6-6---6--


Verse :

e----------------------------------------------------
B----------------------------------------------------
G----------------------------------------------------
D--3--3--3--3--3--3--3--3--3-------------------------
A-4--4--4--4--4--4--4--4--4----4--4--4--4--4--4--4--4
E----------------------------2--2--2--2--2--2--2--2--

Chorus :

e--------------
B--------------
G--------------
D----3----1----
A--4----1-----4
E-----------2--


Add a comment/correction

Complimentary Christian Ringtones
Dadamobile and CGR have teamed up to bring your favorite Christian artists right to your phone. Sign up today and get 10 complementary ringtones!
Tab Country
Did you know CGR has a sister site w/ country guitar tabs? Well we do! Its called Tab Country. It has a great archive with a lot of country tabs.
Rockin Tabs
Are you looking for a site that has rock guitar tabs? Then Rockintabs.com is the place for you. It is a budding site with many rock guitar tabs. Submit your tab today.
Tab Gallery
Tab Gallery has a compilation of christian, rock, and country tabs all in one place. Come visit us.