Guitar Tabs
song title    band name

Join Us Today!

Don't strum alone...
be a part of the largest online Christian music community. Browse thousands of guitar tabs and chat w/ musicians like yourself.


It's Free!

Sonicflood - There's Something About That Name

This tab has been rated a 5.00 out of 5 for accuracy. (2 votes)Sorry, but you must be logged in to rate this tab.
Click here to log-in, or you can click here to register.
(Registration is free)

All songs owned by corresponding publishing company. If you make copies of any song on this website, be sure to report your usage to CCLI.
Title: There's Something About That Name
Album/Author: Sonicflood
Copryright: Gotee Records

There are two guitars in this song. The second guitar is in standard
tuning with a cold chorus. There is not much of guitar two in this song.
In the chorus he picks out the chords. Now the first guitar, which is an
acoustic, is in open F chord tuning.  I'm not real certain of this but if
you listen to the pitch and the sustaining notes, you will probably agree.
I figured out three ways to play the acoustic guitar. (1) Play it in standard
tuning with a capo on the first fret. Chords not relative to capo. (2) Play
it in open F chord tuning. Low to high, FCFACF. (3) Play it in open E chord
tuning and slap a capo on the first fret. Low to high, EBEG#BE. Now I would
would do number three because it sounds very much like the song and by
using the open E tuning you only have to tune three strings, which is less
strenuous on your strings then tuning to open F. I'll tab the acoustic in
open F chord tuning. Enjoy -Kent-

This is intro for guitar 2.
E--------------------------
B-----4-6--4-3-2------4-6--
G--------------------------
D--3---------------3-------
A--------------------------
E--------------------------

The verse for the acoustic in standard tuning with capo.

   F7  F6  F+  F
E-----------------
B--3---2---1---0--
G--1---1---1---1--
D--2---2---2---2--
A--2---2---2---2--
E--0---0---0---0--

The chords for open F chord tuning.

   F7  F6  F+  F   Cm  Gm  Bbm C   D   Dm  A   Fm  C#  B
F------------------------------------------4---0---8---6---
C--3---2---1---0---3---2---1---4---2---2---4---0---8---6---
A--0---0---0---0---3---1---1---3---0---0---4---3---8---6---
F--0---0---0---0---2---2---0---2---1---0---4---3---8---6---
C--3---2---1---0---0---2---1---0---2---2---4---0---8---6---
F--0---0---0---0-------2-------------------4---0---8---6---


       F7     F6     F+  F               F7        F6         F+ F
Verse  Jesus, Jesus, Jesus, there's just something about that name.

       F7      F6      F+  F           Cm        Gm      Bbm  C
       Master, Savior, Jesus, like the fragrance after the rain.

       F7     F6     F+  F          F7         F6       A
       Jesus, Jesus, Jesus, let all heaven and earth proclaim.


       D         Dm            Gm                      Bbm        C
Chor   Kings and kingdoms will all pass away but there's somthing about 


In the bridge guitar1 uses his wah and strums about every other chord. Just
for fun you can 
follow the base in this tab.


   Fm           C#  Cm  Fm           C#        Fm   F
F--0------------8-------0------------8---6--:--0---"0---
C--0------------8---0---0------------8---6--:--0---"0---
A--3------------8---6---3------------8---6--:--3---"0---
F--3--0-2-3-5-7-8---7---3--0-2-3-5-7-8---6--:--3---"0---
C--0--0-2-3-5-7-8---7---0--0-2-3-5-7-8---6--:--0---"0---
F--0--0-2-3-5-7-8---7---0--0-2-3-5-7-8---6--:--0--------


    : = repeat
    " = arpeggiate; strum from bottom to top near the saddle

Comments about this tab

No comments/corrections found. Add your own

Complimentary Christian Ringtones
Dadamobile and CGR have teamed up to bring your favorite Christian artists right to your phone. Sign up today and get 10 complementary ringtones!
Tab Country
Did you know CGR has a sister site w/ country guitar tabs? Well we do! Its called Tab Country. It has a great archive with a lot of country tabs.
Rockin Tabs
Are you looking for a site that has rock guitar tabs? Then Rockintabs.com is the place for you. It is a budding site with many rock guitar tabs. Submit your tab today.
Tab Gallery
Tab Gallery has a compilation of christian, rock, and country tabs all in one place. Come visit us.