Guitar Tabs
song title    band name

Join Us Today!

Don't strum alone...
be a part of the largest online Christian music community. Browse thousands of guitar tabs and chat w/ musicians like yourself.


It's Free!

Sonicflood - Carried Away

This tab has been rated a 4.50 out of 5 for accuracy. (2 votes)Sorry, but you must be logged in to rate this tab.
Click here to log-in, or you can click here to register.
(Registration is free)

All songs owned by corresponding publishing company. If you make copies of any song on this website, be sure to report your usage to CCLI.
Carried Away
Artist: Sonicflood
Album: Sonicflood
Transcribed by: jed 
Email: jclgreat@juno.com

Intro
-------------------------------------------------------------------------
-------------------------------------------------------------------------
--9-9-9-9-9-9-9-9-5-5-5-5-5-5-5-5-----------------7-7-7-7-7--------------
--x-x-x-x-x-x-x-x-x-x-x-x-x-x-x-x-5-5-5-5-5-5-5-5-x-x-x-x-x--------------
--7-7-7-7-7-7-7-7-3-3-3-3-3-3-3-3-x-x-x-x-x-x-x-x-5-5-5-5-5--------------
----------------------------------3-3-3-3-3-3-3-3------------------------
             
    
Verse:
NC Em
C7
G
D

Chorus:
1st time just acoustic (last F and G are single strums)
2nd time full band
C Em
A
C
G D
C Em
A
C
G D     
F G

Bridge:
D C
Bb C D
C
Bb C D


Solo 1
D5-F#5-A5
-------------------------------------------------------------------------
--7h8p7h8p7--------------------------------------------------------------
-------------6-----------------------------------------------------------
------------------7----9----7--------------------------------------------
---------------------------------9----7--5-------------------------------
-------------------------------------------------------------------------
                                                                
        
    
D5-F#5-B5
-------------------------------------------------------------------------
--7h8p7h8p7--------------------------------------------------------------
-------------6------------------------------------11---------------------
------------------7----9----11h12p11h12p11h12p11-------------------------
-------------------------------------------------------------------------
-------------------------------------------------------------------------
                                                                
       
   
D5-F#5-A5
-------------------------------------------------------------------------
--7h8p7h8p7--------------------------------------------------------------
-------------6-----------------------------------------------------------
------------------7----9----7--------------------------------------------
---------------------------------9--\7/9\7\5-----------------------------
-------------------------------------------------------------------------
                                                                
        
    
D5-F#5-B5
-------------------------------------------------------------------------
--7h8p7h8p7--------------------------------------------------------------
-------------6-----------------------------------------------------------
------------------7----7/9/13v-------------------------------------------
-------------------------------------------------------------------------
-------------------------------------------------------------------------
                                                                
        
    
Solo 2
over chorus chords
with wah
-------------------------------------------------------------------------
--17b----15b-------------------------------------------------------------
----------------14--14----12-14-12---------------------------------------
-----------------------------------14-14---------------------------------
-------------------------------------------------------------------------
-------------------------------------------------------------------------
                                                                
        
    

-------------------------------------------------------------------------
--17b----15b----17--17--15-----------------------------------------------
------------------------------------16--14-------------------------------
----------------------------14--17----------14--14-----------------------
-------------------------------------------------------------------------
-------------------------------------------------------------------------
                                                                
        
    
Chorus

Outro F-Em

C7-x32000

Comments about this tab

guitarbro26 - 2004-08-06

this tab is awesome and i really like the solo. its probably closer than mine but this is how i play it.

e------------------------------------------------------------------------------
B-7b8r7b8-7\5-----------------7b8r7b8-7\5-----------7h8-7h8-7h8----------------
G-------------7---------------------------7------------------------------------
D---------------7-7h9-9-7-------------------7-7h9-9----------------------------
A-------------------------9-7--------------------------------------------------
E------------------------------------------------------------------------------

e------------------------------------------------------------------------------
B-7b8r7b8-7\5---------------------7b8r7b8-7\5-----5----------------------------
G-------------7-------------------------------7--------------------------------
D---------------7-7h9-9-7-----------------------7------------------------------
A-------------------------9\7/9-7----------------------------------------------
E------------------------------------------------------------------------------

e-12-----12----------------------------15---15---------------------------------
B-15b17--15-------------------------17----17-----------------------------------
G-----------14-14-12-14-12-------12-----------14b16-12-12-14b16-12-12-14b6-12--
D--------------------------14-14---------------------------------------------14
A------------------------------------------------------------------------------
E------------------------------------------------------------------------------

without your tab and the playing 2 notes and bending one to match the other which my guitar teacher taught me, (the very first part of the second solo),
i would have never cum up with this. this isnt totally right but its another version close to yours but with a few changes. peace out.


musicmatt112590 - 2006-01-02

Lol, my version of the solo is different too. It's not worth submitting a new song though. The hammer-ons and pull-offs may not be right, but it's easy to play. I didn't put any specific timing in it, since it's easy to figure out if you listen to the song.

Key
"h"=hammer-on
"p"=pull-off
"/" or "\"=slide up or down
"b"=bend
E------------------------------------------------------------------------------
B------------------------------------------------------------------------------
G-11h12p11\9------------------------11h12p11\9---------------------------------
D------------12p9-11---------------------------12p9-11--------11h12p11h12p11h12
A--------------------12-14-12---------------------------12-14------------------
E-----------------------------14-12--------------------------------------------

E------------------------------------------------------------------------------
B------------------------------------------------------------------------------
G--------------------11h12p11\9------------------------11h12p11\9--------------
D-p11h12p11h12p11h12------------12p9-11---------------------------12p9-11------
A---------------------------------------12-14-12--------------------------12-14
E------------------------------------------------14-12-------------------------

(squealy part :-])
E-12b-10---------------------12b-15-12-15\
B--------10p8-10-10p8h10p8----------------
G--------------------------9--------------
D-----------------------------------------
A-----------------------------------------
E-----------------------------------------

When it does the 12-14-12 on the A string, I think the "14" has an echo on it. He might have picked the string twice, though. I'm not too sure. The second 12-14-12 is actually 12-14p12h14-12, but it's pretty quick, so you can leave it out if you want. And finally, the 10p8-10-10p8h10p8 part is optional because the guitar isn't even playing there. At least, it's not playing those notes. Hope that's about right!


dandaman - 2006-07-25

Carried Away (solos)

Solo 1
-------------------------------------------------------------------------
--7-8-7-8-7--------------------------------------------------------------
-------------6-----------------------------------------------------------
------------------7----9----7--------------------------------------------
---------------------------------9----7--5-------------------------------
-------------------------------------------------------------------------


-------------------------------------------------------------------------
--7-8-7-8-7--------------------------------------------------------------
-------------6------------------------------------11---------------------
------------------7----9----11-12-11-12-11-12-11------------------------
-------------------------------------------------------------------------
-------------------------------------------------------------------------



-------------------------------------------------------------------------
--7-8-7-8-7--------------------------------------------------------------
-------------6-----------------------------------------------------------
------------------7----9----7--------------------------------------------
---------------------------------9---7-9-7-5-----------------------------
-------------------------------------------------------------------------



-------------------------------------------------------------------------
--7-8-7-8-7--------------------------------------------------------------
-------------6-----------------------------------------------------------
------------------7----7-9-13--------------------------------------------
-------------------------------------------------------------------------
-------------------------------------------------------------------------



Solo 2
-------------------------------------------------------------------------
--17-----15--------------------------------------------------------------
----------------14--14----12-14-12---------------------------------------
-----------------------------------14-14---------------------------------
-------------------------------------------------------------------------
-------------------------------------------------------------------------



-------------------------------------------------------------------------
--17-----15-----17--17--15-----------------------------------------------
------------------------------------16--14-------------------------------
----------------------------14--17----------14--14-----------------------
-------------------------------------------------------------------------
-------------------------------------------------------------------------


Add a comment/correction

Complimentary Christian Ringtones
Dadamobile and CGR have teamed up to bring your favorite Christian artists right to your phone. Sign up today and get 10 complementary ringtones!
Tab Country
Did you know CGR has a sister site w/ country guitar tabs? Well we do! Its called Tab Country. It has a great archive with a lot of country tabs.
Rockin Tabs
Are you looking for a site that has rock guitar tabs? Then Rockintabs.com is the place for you. It is a budding site with many rock guitar tabs. Submit your tab today.
Tab Gallery
Tab Gallery has a compilation of christian, rock, and country tabs all in one place. Come visit us.