Guitar Tabs
song title    band name

Join Us Today!

Don't strum alone...
be a part of the largest online Christian music community. Browse thousands of guitar tabs and chat w/ musicians like yourself.


It's Free!

Smalltown Poets - Gospel Is Peace, The

This tab has not yet been rated for accuracy.Sorry, but you must be logged in to rate this tab.
Click here to log-in, or you can click here to register.
(Registration is free)

All songs owned by corresponding publishing company. If you make copies of any song on this website, be sure to report your usage to CCLI.
Title:    The Gospel Is Peace
Artist:   Smalltown Poets
Album:    Listen Closely
Author:   Michael Johnston, Danny Stephens, Miguel DeJesus
Copyright 1998 Ardent/Koala (ASCAP) & Smalltown Poetry (ASCAP)
Tabbed by Casey L. Pettitt 


Intro: Bm - D - G, Bm - D - G

Intro Riff (continue playing intro chords)
E-------------------------------------------------|---- repeat 1x
B-------------------------------------------------|----
G--4--2-2-----------------------------------------|----
D---------4-4--2--2--4--4--2--2--0-0--2--2/4\2--0-|----
A-------------------------------------------------|-4-- <-- 1st time
E-------------------------------------------------|----     only

Channel
E-----------------0-----2--0--0--0--|
B------3-------3--0--0---------3----|
G----2-------2----2-----------------|  2x
D--0-----0--------2-----------------|
A----------4------0-----------------|
E-----------------0-----------------|

Verse Riff
E--0-------0-------0-------0--------|-0---------0-------0------0-------|
B--0---0---0---0---0---0-----0--0---|-0----0----0---0---0---0---0-0----|
G--2--2-2--2--2-2--2--2-2-----2---2-|-2--2---2--2--2-2--2--2-2---2--2--|
D--0-------0-------2----------------|-0---------0-------2--------------|
A--2-------0-------0----------------|-2---------0-------0--------------|
E-----------------------------------|-----------2----------------------|

E--0---------0---------0---------0---------|--0---------0---------0---------0-|
B--0----0----0----0----0----0------0--0----|--0----0----0----0----0----0----2-|
G--2--2---2--2--2---2--2--2---2-----2---2--|--2--2---2--2--2---2--2--2---2--2-|
D--0---------0---------2-------------------|--0---------0---------2---------2-|
A--2---------0---------0-------------------|--2---------0---------0---------0-|
E------------------------------------------|------------2-------------------0-|
                                                                            A
Verse 1 (play verse riff):
Pour the oil on troubled waters
Come around lay down arms
Rest between the pure in heart and persecuted
Sound alarms to make calm
Mend the fence convincing some
The Spirit's sence of mercy
Live the Gospel and the Gospel is His peace

Chorus:
Bm  D   G   Bm  D   G
Oh__Oh__Oh, Oh__Oh__Oh

Channel

Verse 2 (play verse riff):
Heal the breach and reach out
With the olive branch, allay fear
Live the seventh blessing and expect
To be an heir of God
Meet halfway to pacify
The longing with an answer
Live the Gospel and the Gospel is His peace

Chorus:
Bm  D   G   Bm  D   G   Bm  D   G   Bm  D   G
Oh__Oh__Oh, Oh__Oh__Oh, Oh__Oh__Oh, Oh__Oh__Oh

Bridge:
Em
For a kiss from Holiness
   G                             Bm                  D
Discovering the dove lights only when our hearts agree
Em
There is reverence in this
    G                              Bm                   D
The offering of heart's ease for a spiritual weave of peace

   Em     G      Bm       D     Em     G      C              A
E----------------------------------------------------------------|
B----------------------------------------------------------------|
G--9---2--7---9--11---16--14----9---2--7---9--12---11h12p11--14--|
D----------------------------------------------------------------|
A----------------------------------------------------------------|
E----------------------------------------------------------------|

Chorus:
Bm  D   G   Bm  D   G
Oh__Oh__Oh, Oh__Oh__Oh   (repeat to end)

(play intro riff beginning second time through chorus)
(play this at end of 2nd x thru inro riff)
E---------------------
B---------------------
G------2-----2-2h4p2--
D--0-4----------------
A---------------------
E---------------------

Comments about this tab

No comments/corrections found. Add your own

Complimentary Christian Ringtones
Dadamobile and CGR have teamed up to bring your favorite Christian artists right to your phone. Sign up today and get 10 complementary ringtones!
Tab Country
Did you know CGR has a sister site w/ country guitar tabs? Well we do! Its called Tab Country. It has a great archive with a lot of country tabs.
Rockin Tabs
Are you looking for a site that has rock guitar tabs? Then Rockintabs.com is the place for you. It is a budding site with many rock guitar tabs. Submit your tab today.
Tab Gallery
Tab Gallery has a compilation of christian, rock, and country tabs all in one place. Come visit us.