Guitar Tabs
song title    band name

Join Us Today!

Don't strum alone...
be a part of the largest online Christian music community. Browse thousands of guitar tabs and chat w/ musicians like yourself.


It's Free!

Smalltown Poets - I'll Give

This tab has not yet been rated for accuracy.Sorry, but you must be logged in to rate this tab.
Click here to log-in, or you can click here to register.
(Registration is free)

All songs owned by corresponding publishing company. If you make copies of any song on this website, be sure to report your usage to CCLI.
~Song: I'll Give
~Artist: SmallTown Poets
Album: SmallTown Poets
Copyright: (C) 1996 Ardent/Koala & SmallTown Poetry
Tabbed by: Josh Gardner (cuinheaven@alloymail.com)
-=-=-=-=-=-=-=-=-=-=-=-=-=-=-=-=-=-=-=-=-=-=-=-=-=-=-=-=-
The last posting had some mistakes, I know this one isn't
perfect either, but it's as close as I can get it........
-=-=-=-=-=-=-=-=-=-=-=-=-=-=-=-=-=-=-=-=-=-=-=-=-=-=-=-=-
This song is fairly easy to play,  it takes a little practice,
but it's worth it. This is a quiet song, guitars are clean, I
like a little overdrive (not much, just enough to notice) in
the solo.
-=-=-=-=-=-=-=-=-=-=-=-=-=-=-=-=-=-=-=-=-=-=-=-=-=-=-=-=-
Intro: (Both these sound the same, but the
top one is easier)
e-----------------------------------------
B--0--4--0--5--0--4--5--0--5--0--5----2--0
G-----------------------------------2-----
or
e-----------------------
B----4--5--4--5--5--2--0
G--4--4--4------4--4--2-
Verse 1: Play this twice
e-----------------------------------------
B--0--4--0--5--0--4--5--0--5--0--5----2--0
G-----------------------------------2-----
Then strum this (C#m, B2, A2)
e--4--2--0--0--
B--5--2--0--0--
G--6--4--2--2--
D--6--4--2--2--
A--4--2--0--0--
E--X--X--X--X--
Stum this also, it's the same thing,
but this one adds a B2 at the end...
e--4--2--0--2--
B--5--2--0--2--
G--6--4--2--4--
D--6--4--2--4--
A--4--2--0--2--
E--X--X--X--X--
Chorus:
e--0--0--0--0--
B--0--0--0--0--
G--1--1--2--2--
D--2--2--2--2--
A--2--2--0--0--
E--0--0--X--X--

e--0--0--0--0--
B--0--0--0--0--
G--1--1--2--2--
D--2--2--2--2--
A--2--2--0--0--
E--0--0--X--X--

e--4--2--0--0--
B--5--2--0--0--
G--6--4--2--2--
D--6--4--2--2--
A--4--2--0--0--
E--X--X--X--X--

verse 2:
Verse 1: Play this twice
e-----------------------------------------
B--0--4--0--5--0--4--5--0--5--0--5----2--0
G-----------------------------------2-----

e--4--2--0--0--
B--5--2--0--0--
G--6--4--2--2--
D--6--4--2--2--
A--4--2--0--0--
E--X--X--X--X--

e--4--2--0--2--
B--5--2--0--2--
G--6--4--2--4--
D--6--4--2--4--
A--4--2--0--2--
E--X--X--X--X--

Repeat Chorus

Solo: (Here comes the hard part)
e------------------------------
B------------------------------
G------------------------------
D-4/6-4-2-1-2-4---1---4/6-4-2-6
A---------------4--------------
E------------------------------

e------------------------------
B------------------------------
G-----7------------------------
D-7-9---9----6----4------------
A------------------------------
E------------------------------

Bridge:
e--4--2--0--0--
B--5--2--0--0--
G--6--4--2--2--
D--6--4--2--2--
A--4--2--0--0--
E--X--X--X--X--

e--4--2--0--2--
B--5--2--0--2--
G--6--4--2--4--
D--6--4--2--4--
A--4--2--0--2--
E--X--X--X--X--

Chorus to fade.
-Verse 1:
Play this for first two lines (no chords)
e-----------------------------------------
B--0--4--0--5--0--4--5--0--5--0--5----2--0
G-----------------------------------2-----
Yesterday I lived for me,
and I was so alone as I could be.
           C#m             B2            A2
then I saw You and how You gave Yourself away.
  C#m              B2     A2    B2
I want to live for You, today.

-Chorus:
     E                 A2    B2
I'll give, I'll hold nothing
     E                 A2    B2
I'll give, I'll hold nothing
     C#m                B2         A2
I'll give and I'll hold nothing... back.
-Verse 2:
My love is a lot like me,
Wanting nothing less than everything.
But I know You're the only love that's true
(and) only giving makes me close to You.

--Repeat Chorus
--Insert Solo Here
-Bridge:
             C#m       B2            A2
My hands are open, so take what You see.
              C#m            B2              A2     B2
And I'll keep nothing, hold nothing back for me.

--Repeat Chorus 2x or to fade

Comments about this tab

No comments/corrections found. Add your own

Complimentary Christian Ringtones
Dadamobile and CGR have teamed up to bring your favorite Christian artists right to your phone. Sign up today and get 10 complementary ringtones!
Tab Country
Did you know CGR has a sister site w/ country guitar tabs? Well we do! Its called Tab Country. It has a great archive with a lot of country tabs.
Rockin Tabs
Are you looking for a site that has rock guitar tabs? Then Rockintabs.com is the place for you. It is a budding site with many rock guitar tabs. Submit your tab today.
Tab Gallery
Tab Gallery has a compilation of christian, rock, and country tabs all in one place. Come visit us.