Guitar Tabs
song title    band name

Join Us Today!

Don't strum alone...
be a part of the largest online Christian music community. Browse thousands of guitar tabs and chat w/ musicians like yourself.


It's Free!

Smalltown Poets - Garland of Grace

This tab has not yet been rated for accuracy.Sorry, but you must be logged in to rate this tab.
Click here to log-in, or you can click here to register.
(Registration is free)

All songs owned by corresponding publishing company. If you make copies of any song on this website, be sure to report your usage to CCLI.
Garland of Grace
Smalltown Poets
Peter (magetta@juno.com)
Tab Entry: copyright Ardent/Koala Music(ASCAP) Smalltown Poetry(ASCAP)

Intro: 

   D          G
D:-4--5-5-7---4-4-5-5-7-

Verse:
D                   G
Won't you be a good boy 
D                 G
Listen closely and enjoy
         Bm                D             E
All the benefits that getting wisdom brings
D            G
Give her esteem
D                       G
She is priceless and supreme
          Bm                         D
She will crown your head with more honor than 
  E      G
king 

Chorus:
                 A             G
Get her boy and let yourself surrender 
                Bm            D
Run alone with her and never fall
              A                    G 
She is wisdom and her most praiseworthy trait of 
 D            E
all  Of them all 
                     A                    G
Embrace her and the love she brings will save you
        Bm                   D 
By her father's justifiable ways
         A                      G
She is wisdom waiting with her prize  Garland of 

Grace

Verse 2:

Do you have none Do you cry out for the one  Would you offer anything to
understand
Study her will  And in time the truth will tell
How it's wisdom that completely makes her man  And she will now so...

Chorus:

D         G  
It's her garland... 

Solo:

E-------------------------------------
B-------------------------------------
G-14-14-12-11h12-11-12-11-------------
D-------------------------12-12h14-12- 2x
A-------------------------------------
E-------------------------------------

E---------------------
B-/10-10--------------
G-/11-11-7h9-7--7h9-7-
D--------------------- 2x
A---------------------
E---------------------

E-------------------------------------------------
B-10-8-----8-----8\(3)--3h5-3-3h5-3-3h5-3---------
G-------11---11-----------------------------------
D-------------------------------------------------
A-------------------------------------------------
E-------------------------------------------------

Comments about this tab

No comments/corrections found. Add your own

Complimentary Christian Ringtones
Dadamobile and CGR have teamed up to bring your favorite Christian artists right to your phone. Sign up today and get 10 complementary ringtones!
Tab Country
Did you know CGR has a sister site w/ country guitar tabs? Well we do! Its called Tab Country. It has a great archive with a lot of country tabs.
Rockin Tabs
Are you looking for a site that has rock guitar tabs? Then Rockintabs.com is the place for you. It is a budding site with many rock guitar tabs. Submit your tab today.
Tab Gallery
Tab Gallery has a compilation of christian, rock, and country tabs all in one place. Come visit us.