Guitar Tabs
song title    band name

Join Us Today!

Don't strum alone...
be a part of the largest online Christian music community. Browse thousands of guitar tabs and chat w/ musicians like yourself.


It's Free!

Smalltown Poets - Everything I Hate

This tab has not yet been rated for accuracy.Sorry, but you must be logged in to rate this tab.
Click here to log-in, or you can click here to register.
(Registration is free)

All songs owned by corresponding publishing company. If you make copies of any song on this website, be sure to report your usage to CCLI.
song:  everything i hate
band:  smalltown poets
album:  (self titled)
written by:  d. stephens, m. johnston, l. moody
copyright 1996 ardent/koala and smalltown poetry
blah blah blah.

the last tab submitted was almost exact so this is just a little addition

intro
A5, C5, D5

verse 1
A5     C5 D5         A5, C5, D5
i think i am elastic.
A5         C5   D5           A5, C5, D5
these arms they are a wonder.
A5             C5  D5                A5, C5, D5
they pull from sideways up and under.
A5           C5   D5
i think it's time for something drastic.

pre-chorus 1
B5 A5                          B5
   and it could be more than i bargained for.
A5            
ten to one it is.

chorus 
D              G            B    A*
oooo, i'm into everything i hate.
E                G        D                   A
my spirit is not fooled.  my members take the bate.
D              G            B    A*
oooo, i'm into everything i hate.
E              G         D           A
still not dead enough to stifle this debate.

* = play the A like this...
e|------|
B|------|
G|--2---|
D|---2--|
A|-0--0-|
E|------|

verse 2
A5          C5   D5                A5, C5, D5
these heals were made for bruising.
A5      C5     D5                 A5, C5, D5
and the cobblestones they're using
A5      C5   D5                 A5, C5, D5
are the pleasures of my chosing.
A5       C5 D5              
o i must be born for losing.

pre-chorus 2
B5 A5                  B5
   Heal these souls to hurt no more.
A5                 B5
i lift these hands just like before.
A5              B5
cover me like a dimestore suit.
A5                  
until i'm just like you.

chorus again

bridge
G5             F5            E5
careful little eyes what you see
G5             F5             E5
careful little feet where you go

then the chorus like this...

   D        G                       B     A
e|---------------------------------------------|
B|---3--------3--------------------------------|
G|--2-2-2-2---0-----------------------4----2---|
D|-0---0-0---0-----------------------4-4----2--|
A|----------------------------------2---2-0--0-|
E|----------3----------------------------------|
            o i'm into everything i hate.

   E                G       D                   A
e|-----------------------------2----------------------|
B|--------------------3-------3-3---------------------|
G|---------------------0-----2---2----------------2---|
D|---2---------------0------0--------------------2-2--|
A|--2-2-----------------------------------------0---0-|
E|-0----------------3---------------------------------|
   my spirit is not fooled. my members take the bate.

   D        G                       B     A
e|-2--------3-----------------------2-----0----|
B|-3-3------3-3---------------------4-----22---|
G|-22-2-2-2-0-0---------------------4-4---2-2--|
D|-0---0-0--00----------------------44-4--2--0-|
A|----------2-----------------------2---2-0----|
E|----------3----------------------------------|
            o i'm into everything i hate.

   E              G         D              A
e|-0--------------0---------2--2---------0-----|
B|-0--------------0-3-------3-3-3--------2-----|
G|-1--------------0--0------22---2-------2-2---|
D|-2-2------------00--------0------------22-2--|
A|-22-2-----------2----------------------0---0-|
E|-0--------------3----------------------------|
   still not dead enough to stiffle this debate.

then play the chorus again the 1st way

then the intro again

ok that's it.  i think it's write but i could be wrong so if i am tell
me that i'm a pathetic human being and that my everything i hate tab
is way off and i should be ashamed to have put my name on it...or email 
address anyway.  (bassmaggot@yahoo.com)

Comments about this tab

No comments/corrections found. Add your own

Complimentary Christian Ringtones
Dadamobile and CGR have teamed up to bring your favorite Christian artists right to your phone. Sign up today and get 10 complementary ringtones!
Tab Country
Did you know CGR has a sister site w/ country guitar tabs? Well we do! Its called Tab Country. It has a great archive with a lot of country tabs.
Rockin Tabs
Are you looking for a site that has rock guitar tabs? Then Rockintabs.com is the place for you. It is a budding site with many rock guitar tabs. Submit your tab today.
Tab Gallery
Tab Gallery has a compilation of christian, rock, and country tabs all in one place. Come visit us.