Guitar Tabs
song title    band name

Join Us Today!

Don't strum alone...
be a part of the largest online Christian music community. Browse thousands of guitar tabs and chat w/ musicians like yourself.


It's Free!

This tab has not yet been rated for accuracy.Sorry, but you must be logged in to rate this tab.
Click here to log-in, or you can click here to register.
(Registration is free)

All songs owned by corresponding publishing company. If you make copies of any song on this website, be sure to report your usage to CCLI.
Beast by Bride
Off of the album Scarecrow Messiah
(c) 1994 Dawn Treader Music

Tuned down a half step (Eb,Ab,Db,Gb,Bb,Eb)

~=vibrato
b(1/4)=quater bend
b(1/2)=half bend

The main riff is:

Eb:--0-0-3b(1/4)-0-0-3b(1/4)-0-7b(1/4)-0-6b(1/4)-

-0-5b(1/4)-0

The fill right before the singing is:

Eb:-----------------------------------------------
Bb:--------------15~~-----------15-----------15---
Gb:--------16~~--------16b(1/2)-----16b(1/2)------
Db:--14~~-----------------------------------------

Verse:

The main verse riff is:

   P.M.----- 
Db:-------------------------------7-5|
Ab:-------------------------------7-5| repeat 2x
Eb:--0-0-0-0--5-6-7-0-0-5-6-7-0-0-5-3|

     The devils head...

    Let ring
Db:--7---------7---------7---------7
Ab:--7---------7---------7---------7
Eb:--5---------5---------5---------5

     Not an easy road...

  P.M.--------------
Eb:-----------------------------------------------
Bb:--------------------------------15----------15-
Gb:-----------------------16b(1/2)----16b(1/2)----
Db:-----------------------------------------------
Ab:-----------------------------------------------
Eb:--0-0-0-0-0-0-0-0------------------------------

     I'm sick and tired...

Pre-Chorus:

   Let ring                  P.M.------
Db:--5------7--|           Db:--4-4-4-4
Ab:--5------7--|repeat 3x  Ab:--4-4-4-4 repeat 4x
Eb:--3------5--|           Eb:--2-2-2-2
   
    Do you fill...            ...inside

Chorus:

Eb:--0-0-(5)/7-5-6-0---0-0-(5)/7-5-3 repeat 4x

     You're the little beast...

Repeat verse riff:

Repeat pre-chorus:

Repeat chorus:

Solo:

Eb:-----------10-10----------10------|
Bb:--10-11-12-------10-11-12----10---| repeat 2x 
Gb:--------------------------------12| 

Eb:----------------------------------------------
Bb:----------15----------15----------15----------
Gb:-16b(1/2)----16b(1/2)----16b(1/2)----16b(1/2)-

Eb:----------------------------------------------
Bb:---------------------------------12b(1/2)-11--
Gb:--10~---13-10~---13-10~---13-10---------------

Eb:--------------------------------------------
Bb:--9-11-9---------10~---13-10---12b(1/2)-11--
Gb:----------8-10------------------------------

Eb:----------------------------------------------
Bb:--9-11-9-------12b(1/2)-11-9-11-9------12b(1/2)
Gb:----------8-10--------------------8-10--------

Eb:------------------------------------------
Bb:--11-9-11-9------12b(1/2)-11-9-11-9-------
Gb:------------8-10--------------------8-10--

Eb:-------------------
Bb:--11b(1/4)-9-11-11-
Gb:-------------------

Repeat verse riff:

Repear pre-chorus:

Repeat chorus:

Outro:

Gb:-----------5|
Db:-----------5|
Ab:-----------7| w/ variations
Eb:--0-0-0-0--0|

    Hey...  You're the little...

Comments about this tab

Avidhalenist - 2005-04-20

Your fill before the singing is wrong sounds like you are missing at least three notes. Also during the solo play the 15 and 16b 10x


Add a comment/correction

Complimentary Christian Ringtones
Dadamobile and CGR have teamed up to bring your favorite Christian artists right to your phone. Sign up today and get 10 complementary ringtones!
Tab Country
Did you know CGR has a sister site w/ country guitar tabs? Well we do! Its called Tab Country. It has a great archive with a lot of country tabs.
Rockin Tabs
Are you looking for a site that has rock guitar tabs? Then Rockintabs.com is the place for you. It is a budding site with many rock guitar tabs. Submit your tab today.
Tab Gallery
Tab Gallery has a compilation of christian, rock, and country tabs all in one place. Come visit us.