Guitar Tabs
song title    band name

Join Us Today!

Don't strum alone...
be a part of the largest online Christian music community. Browse thousands of guitar tabs and chat w/ musicians like yourself.


It's Free!

This tab has not yet been rated for accuracy.Sorry, but you must be logged in to rate this tab.
Click here to log-in, or you can click here to register.
(Registration is free)

All songs owned by corresponding publishing company. If you make copies of any song on this website, be sure to report your usage to CCLI.
Song: Learn to Unlearn
Artist: Slick Shoes
Album: Burn Out
Written by: Slick Shoes
Copyright: 1998 We Own Your Songs (SESAC)
          and 1998 But We Own Them Too (SESAC)

(Intro) G*... D* A#... (x4)
C D A# C D A# 

D                  A#
I’m worn out again.
                                  G            
Feel the weight of the world crashing down on me.
C                       D          D
Teach me how to let it go.
                               A#    
My walk has turned to a crawl.
                                 G
I’m on my hands and knees.
                  C     C#       
How do I get up?


D              A#                                            G
When did it get so hard to make it through a day.
                       C           C#                     D
When I was a child everything just went away.

D... E* F* C#... (x4) D

--clean--
pick out strings in bar chords Dm D2 Dm like this:

Guitar 1:

e-|--------------------------------|
B-|-----------6---------------5-6--|
G-|-7-7-7-----7--7-7-7-------------|
D-|--------------------------------|
A-|--------------------------------|
E-|--------------------------------|



Guitar 2:

e-|-------------------------|
B-|-------------------------|
G-|-------------------------|
D-|-------------------------|
A-|-5------------5----------|
E-|-------------------------|

--end clean--

D
And all I’ve learned is
A#                      G     C C#
nothing stays the same.
D
And all I’ve learned is
A#                      G        C C#
nothing stays but change.


D              A#                                             G
When did it get so hard to make it through a day?
                      C            C#                   
When I was a child everything just went away.

Guitar 1 (starts when vocals say away):

e-|-------------------------------------------------------------------------
B-|---------------------------------8---8----------8--------------------8---
G-|-7...7-7-5...7...7-7-9...7...9-10---9---10-9------10-9-----7...9-10----9-
D-|---------------------------------------------10---------10---------------
A-|-------------------------------------------------------------------------
E-|-------------------------------------------------------------------------

e-|------------------------------------------------------------------------
B-|-8-----------8--------------------8--------------------------8-10-8-6-8-
G-|---10-9-------10-9-----7...9-10----9-------------7...9-10---------------
D-|----------10--------10------------------10-7-10-------------------------
A-|------------------------------------------------------------------------
E-|------------------------------------------------------------------------

e-|-10-10-10-(repeat lots of times!)-8-10-8-10-8-10-8-10-8----------------|
B-|----------------------------------------------------------10-6---------|
G-|----------------------------------------------------------------7...7--|
D-|-----------------------------------------------------------------------|
A-|-----------------------------------------------------------------------|
E-|-----------------------------------------------------------------------|

Guitar 2 (starts when vocals say away):

D(pm) D D(pm) D E*(pm) E* E*(pm) E* C(pm) C C(pm) C C(pm) C C(pm) C (x4)

D E* C (x4) D...D


Love in Christ while lovin' Christ,
Karl Verkade <>< (Ephesians 5:1-2)

Comments about this tab

No comments/corrections found. Add your own

Complimentary Christian Ringtones
Dadamobile and CGR have teamed up to bring your favorite Christian artists right to your phone. Sign up today and get 10 complementary ringtones!
Tab Country
Did you know CGR has a sister site w/ country guitar tabs? Well we do! Its called Tab Country. It has a great archive with a lot of country tabs.
Rockin Tabs
Are you looking for a site that has rock guitar tabs? Then Rockintabs.com is the place for you. It is a budding site with many rock guitar tabs. Submit your tab today.
Tab Gallery
Tab Gallery has a compilation of christian, rock, and country tabs all in one place. Come visit us.