Guitar Tabs
song title    band name

Join Us Today!

Don't strum alone...
be a part of the largest online Christian music community. Browse thousands of guitar tabs and chat w/ musicians like yourself.


It's Free!

This tab has not yet been rated for accuracy.Sorry, but you must be logged in to rate this tab.
Click here to log-in, or you can click here to register.
(Registration is free)

All songs owned by corresponding publishing company. If you make copies of any song on this website, be sure to report your usage to CCLI.
Skypark - What God Does
From the album Overbluecity

B D
Jump in the mess of human lives undressed
E G A F# 
And sin unconfessed, and see beauty
B D
Look at the sea of misfits and misery
E G A F# E
And cry till you bleed and see beauty
B 
That's what God does
D
That's what God does
G# F# E F#
That's what God does, why can't we?
B
That's what God does
D
That's what God does
G# F# E F#
That's what God does, why can't we? 

B D G# F# A

Waste all the best on the most dishonored guest
When she's unimpressed, and see beauty
Give 'til you're gone to the least deserving one
And call him your son and see beauty

Chorus

Everyone I know has failed me
Should I let them take that cross and nail me?


The bridge is F# E F# B F# E F# G F#, and here's the solo:

e-9-7-------9-8--12-9-16-14b-----7-12-9-7---14-7-9-11-12-
B-----9-6-9------------------7-9----------9--------------
G--------------------------------------------------------
D--------------------------------------------------------
A--------------------------------------------------------
E--------------------------------------------------------

e-14-16-11-12-14-----------------------------
B----------------9-11-13-14---/16----13----9-
G--------------------------------------------
D--------------------------------------------
A--------------------------------------------
E--------------------------------------------

Tabbed by:
-->Marcus Brody<--

Comments about this tab

No comments/corrections found. Add your own

Complimentary Christian Ringtones
Dadamobile and CGR have teamed up to bring your favorite Christian artists right to your phone. Sign up today and get 10 complementary ringtones!
Tab Country
Did you know CGR has a sister site w/ country guitar tabs? Well we do! Its called Tab Country. It has a great archive with a lot of country tabs.
Rockin Tabs
Are you looking for a site that has rock guitar tabs? Then Rockintabs.com is the place for you. It is a budding site with many rock guitar tabs. Submit your tab today.
Tab Gallery
Tab Gallery has a compilation of christian, rock, and country tabs all in one place. Come visit us.