Guitar Tabs
song title    band name

Join Us Today!

Don't strum alone...
be a part of the largest online Christian music community. Browse thousands of guitar tabs and chat w/ musicians like yourself.


It's Free!

Skillet - You Take My Rights Away

This tab has been rated a 2.50 out of 5 for accuracy. (2 votes)Sorry, but you must be logged in to rate this tab.
Click here to log-in, or you can click here to register.
(Registration is free)

All songs owned by corresponding publishing company. If you make copies of any song on this website, be sure to report your usage to CCLI.
Author/Artist: Skillet
Title: You Take My Rights Away
Album: Invincible
Transcribed by: Justin Mahaffie
Email: justinm22@fcmail.com

Another one off the new greatest album Invincible. 
Listen, some feedback off of these would be cool 
if you get the chance. If this sounds pretty decent 
while you're playing it, drop me a line and tell me it's 
alright. Or lemme know if you can patch it up a bit. 
Even lemme know if i really suck at this, and I'll quit 
doing the tab & chord stuff.  Later. Keep Skillet & their 
incredible invincible ministry in your prayers.


Chords used:            G#  ( 4 6 6 5 X X )
                        A#  ( 6 8 8 7 X X )
                        C   ( X 3 5 5 X X )
                        C#  ( X 4 6 6 X X )
                        D#  ( X 6 8 8 X X )
                        F#  ( 2 4 4 3 X X )
                       HF#  ( X 9 11 11 X X )
        

Intro
e  ---------------------------------------------------------------------
B  ---------------------------------------------------------------------
G  --8-8-8-8-8-8b9--6-----11---10v----8-8-8-8-8b9--6-----11---13----15--
D  -------------------------------------------------------------11------
A  ---------------------------------------------------------------------
E  ---------------------------------------------------------------------

Chorus/Intro2:     D#   HF#   C#   B       D#   HF#   C#   A#

 
Riff 1       (G# 6th string played underneath this)
e  ---------------------------------------------------------------------
B  ---------------13----14--------13-------------13-------------14------
G  ------------13--------------13-------13----13-------16----13-------13
D  ------------------16--------------16-------------16-------------16---
A  ---------------------------------------------------------------------
E  ---------------------------------------------------------------------


Verse:
G# C F#
G# C F#
G# C F#
G# C F#                               

Regular Chorus:  
(No guitar…kinda shimmery…)
C# B                  
D# F#
C# A# A#
D# F#
C# B
D3 F#
C3 A#A#

Verse 2:
G# C F#
G# C F#
G# C F#
G# C F#


Makeshift Solo:

-----16---11--------------------------16---11--------------------------
-----20b-----11/13--------------------20b------------------------------
-------------------13p11—13~~-------------------------11--11---h13-----
----------------------------------------------------11--11--11---------
-------------------------------------------------11--------------------
-----------------------------------------------------------------------

--14/16---11------------------------------16---14----11----21~~~-------
------------------------------------------20b—-18b---14b---------------
-------------11h13p11h13p11h13p11h13-----------------------------------
-----------------------------------------------------------------------
-----------------------------------------------------------------------
-----------------------------------------------------------------------

Then just chorus x2…out…

Comments about this tab

No comments/corrections found. Add your own

Complimentary Christian Ringtones
Dadamobile and CGR have teamed up to bring your favorite Christian artists right to your phone. Sign up today and get 10 complementary ringtones!
Tab Country
Did you know CGR has a sister site w/ country guitar tabs? Well we do! Its called Tab Country. It has a great archive with a lot of country tabs.
Rockin Tabs
Are you looking for a site that has rock guitar tabs? Then Rockintabs.com is the place for you. It is a budding site with many rock guitar tabs. Submit your tab today.
Tab Gallery
Tab Gallery has a compilation of christian, rock, and country tabs all in one place. Come visit us.