Guitar Tabs
song title    band name

Join Us Today!

Don't strum alone...
be a part of the largest online Christian music community. Browse thousands of guitar tabs and chat w/ musicians like yourself.


It's Free!

Skillet - Say It Loud

This tab has been rated a 3.00 out of 5 for accuracy. (1 vote)Sorry, but you must be logged in to rate this tab.
Click here to log-in, or you can click here to register.
(Registration is free)

All songs owned by corresponding publishing company. If you make copies of any song on this website, be sure to report your usage to CCLI.
Author/Artist: Skillet (John L. Cooper)
Title: Say It Loud
Album: Invincible
Transcribed by: Jon Bounds
Email: G-sus@mailcity.com
Copyright 1999 Photon Music (BMI) All Rights Reserved

This song rocks!  The guitar part in this songs are mostly power chords.
There also is a pretty cool keyboard part, and if anyone figures it out
could you please let me know.
Thanks.

Riff 1
  D        Em        Bm       G
E------10|------10|------10|-------10|
B---10---|---10---|---10---|----10---|
G-7------|-9------|--------|---------|
D--------|--------|-9------|---------|
A--------|--------|--------|-10------|
E--------|--------|--------|---------|
                                                                              
Riff 2
  D        Em        Bm       A
E------10|------10|------10|------10-|
B---10---|---10---|---10---|---10----|
G-7------|-9------|--------|-7-------|
D--------|--------|-9------|---------|
A--------|--------|--------|---------|
E--------|--------|--------|---------|

Riff 3
  D        Em        Bm        G
E-x-x----|--------|-x-x----|---------|
B-x-x----|--------|-x-x----|---------|
G-7-7----|--------|-4-4----|---------|
D-7-7----|--------|-4-4----|---------|
A-5-5----|--------|-2-2----|---------|
E-x-x----|--------|-x-x----|---------|
                                                                              

Guitar 1: Plays the chords written below in muted power chord form.    
Guitar 2: On the intro and first 2 lines of the verse plays Riff 3
unmuted, slightly distorted
Guitar 3/or keyboard: Riff 1 is played throughout the verses by a guitar
or keyboard until the last line of the verse when Riff 2 is played.
|---------------------------------------------------------------------|

Intro: D Em Bm G

Verse 1:
D Em Bm G
D Em Bm G
D Em Bm G
D Em Bm G A

Chorus:
D
Em
Bm
G
(repeat)

Verse 2:
D Em Bm G
D Em Bm G
D Em Bm G
D Em Bm G A

Chorus(4x)

Bridge:
G D Em G
G D Em G
G D Em G
G D

Chorus(sung 6x then starts to fade out)

        EADGBE   
   D(5)-x577xx 
Em/E(5)-x799xx
Bm/B(5)-x244xx
   G(5)-355xxx
   A(5)-577xxx
That's pretty much it, and if anyone has any questions, suggestions, etc.
please e-mail me(no scathing hate-mail please).
ps. Jesus ROCKS!!!!! ><>

Comments about this tab

No comments/corrections found. Add your own

Complimentary Christian Ringtones
Dadamobile and CGR have teamed up to bring your favorite Christian artists right to your phone. Sign up today and get 10 complementary ringtones!
Tab Country
Did you know CGR has a sister site w/ country guitar tabs? Well we do! Its called Tab Country. It has a great archive with a lot of country tabs.
Rockin Tabs
Are you looking for a site that has rock guitar tabs? Then Rockintabs.com is the place for you. It is a budding site with many rock guitar tabs. Submit your tab today.
Tab Gallery
Tab Gallery has a compilation of christian, rock, and country tabs all in one place. Come visit us.