Guitar Tabs
song title    band name

Join Us Today!

Don't strum alone...
be a part of the largest online Christian music community. Browse thousands of guitar tabs and chat w/ musicians like yourself.


It's Free!

Skillet - Rest

This tab has been rated a 5.00 out of 5 for accuracy. (1 vote)Sorry, but you must be logged in to rate this tab.
Click here to log-in, or you can click here to register.
(Registration is free)

All songs owned by corresponding publishing company. If you make copies of any song on this website, be sure to report your usage to CCLI.
Author/Artist: Skillet
Title: Rest
Album: Invincible
Transcribed by: jed
Email: godchasin@truthmail.com
Synth transcribed for guitar on Intro/Verse and PreChorus
Actual guitar for Chorus and Bridge

Intro/Verse
  D                               Bm              G
-----------------------------------------------------------
--3-----3-----2-----2-----3-----3-----3-----3--------------
-----2-----2-----2-----2-----4-----4-----0-----0-----------
--0-----------0--------------------------------------------
--------------------------2--------------------------------
--------------------------------------3--------------------

PreChorus
(Come and I come)
A                           G
--0-----0-----0-----0------------------------------------------
-----2-----2-----2-----2--3-----3-----3-----3------------------
-----------------------------0-----0-----0-----0---------------
---------------------------------------------------------------
--0------------------------------------------------------------
--------------------------3------------------------------------

Chorus (use chords)
D
A Bm
G D 
A Bm
A Bm
G D
A

Bridge-3x then ending
  G              A               Bm              A
-------0-----------0-----------0-----------0------------------
----------3-----------2-----------3-----------2---------------
----0-----------2-----------------------2---------------------
----------------------------4---------------------------------
-------------0-----------2-----------0------------------------
--3-----------------------------------------------------------

Bridge ending                     
  G                                           Dsus2 (use tremelo for D2)  
--------0----------0----------0----------0-------0------------
-----------3----------3----------3----------3----3------------
-----0----------0----------0----------0----------2------------
-------------------------------------------------0------------
--------------------------------------------------------------
--3-----------------------------------------------------------

D (cont) Bm G  D        Bm G

Chorus-fade out
----------------


Chorus chords
D--XX0232
A--X02220
Bm-X24432
G--320033

Comments about this tab

No comments/corrections found. Add your own

Complimentary Christian Ringtones
Dadamobile and CGR have teamed up to bring your favorite Christian artists right to your phone. Sign up today and get 10 complementary ringtones!
Tab Country
Did you know CGR has a sister site w/ country guitar tabs? Well we do! Its called Tab Country. It has a great archive with a lot of country tabs.
Rockin Tabs
Are you looking for a site that has rock guitar tabs? Then Rockintabs.com is the place for you. It is a budding site with many rock guitar tabs. Submit your tab today.
Tab Gallery
Tab Gallery has a compilation of christian, rock, and country tabs all in one place. Come visit us.