Guitar Tabs
song title    band name

Join Us Today!

Don't strum alone...
be a part of the largest online Christian music community. Browse thousands of guitar tabs and chat w/ musicians like yourself.


It's Free!

Skillet - Locked In A Cage

This tab has not yet been rated for accuracy.Sorry, but you must be logged in to rate this tab.
Click here to log-in, or you can click here to register.
(Registration is free)

All songs owned by corresponding publishing company. If you make copies of any song on this website, be sure to report your usage to CCLI.
Song: Locked in a Cage
Artist: Skillet
Album: Hey You I Love Your Soul
Copyright: 1998 Photon Music
Tabbed by: Kai Foust praise_him_4ever@hotmail.com

Verse 1:
(Bass only)

Am G F G
Am G F Em
Am G F G
Am G F Em
Dm F
9Guitar comes in)

Verse 2:
Am G F G
Am G F Em
Am G F G
Am G F Em
Dm F
Dm F

Chorus:
Am C F G
Am C F G# G
Am C F G
Am C F G# G

Verse 3:  (same chords as Verse 1)

Repeat Chorus

Solo
e|------------------------------------------------------------------|
B|--12p-------------------------------------------------------------|
G|--------14p--p---p-----------------------------------------12h-14-|
D|---------------------12---------12h-14--14--12--14--12--14--------|
A|--------------------------14--------------------------------------|
E|------------------------------------------------------------------|


e|------------------------------------------------------------------------|
B|---12---------13-----------------13--12-------15--13--12----------------|
G|----------14------14---------------------14---------------14------------|
D|------------------------14h-15--------------------------------14h-15----|
A|------------------------------------------------------------------------|
E|------------------------------------------------------------------------|

e|----------------------------------------------------------------|
B|----13---12-----------------------------------------------------|
G|----------------14h-15--14---14p--14p--14p--14p--14p---fade-out-|
D|----------------------------------------------------------------|
A|----------------------------------------------------------------|
E|----------------------------------------------------------------|

Chords for solo same as chorus

Dm F
Dm F

Repeat Chorus twice

Comments about this tab

God Forgiven - 2005-05-05

im lovin the solo thx much


Add a comment/correction

Complimentary Christian Ringtones
Dadamobile and CGR have teamed up to bring your favorite Christian artists right to your phone. Sign up today and get 10 complementary ringtones!
Tab Country
Did you know CGR has a sister site w/ country guitar tabs? Well we do! Its called Tab Country. It has a great archive with a lot of country tabs.
Rockin Tabs
Are you looking for a site that has rock guitar tabs? Then Rockintabs.com is the place for you. It is a budding site with many rock guitar tabs. Submit your tab today.
Tab Gallery
Tab Gallery has a compilation of christian, rock, and country tabs all in one place. Come visit us.