Guitar Tabs
song title    band name

Join Us Today!

Don't strum alone...
be a part of the largest online Christian music community. Browse thousands of guitar tabs and chat w/ musicians like yourself.


It's Free!

Skillet - Jesus Be Glorified

This tab has been rated a 4.75 out of 5 for accuracy. (4 votes)Sorry, but you must be logged in to rate this tab.
Click here to log-in, or you can click here to register.
(Registration is free)

All songs owned by corresponding publishing company. If you make copies of any song on this website, be sure to report your usage to CCLI.
Song: Jesus Be Glorified
Artist: Skillet
Album: skillet: Ardent Worship Live
Written by: John Cooper
copywright: 2000 Photon Music
Tabbed by: Kai Foust

Intro: C, E, C, G (Repeat)

Verse 1:
C G Am C
C G Am C

Chorus:
C Em
C G

Verse 2:
C G Am C
C G Am C

Repeat Chorus

Bridge:
Am C G
D
Am C

Solo:

e|------------------------------------------------|
B|------------------------------------------------|
G|------0--0-----0--0-----0----0--0-----4--0-----0|
D|---4--------4--------4-----4-------4--------4---|
A|------------------------------------------------|
E|------------------------------------------------|
Play this twice

Repeat Chorus:

Outro:

C, E, C, G (Repeat)

Questions or comments email me: praise_him_4ever@hotmial.com
This is a wondeful song off a wonderful albumn.  I am using most of these
songs in my praise & worship band.  This is my first Tab.  I am pretty sure
it is right.  Enjoy

Comments about this tab

MrCookies7 - 2005-06-03

Good tab, but in the intro i believe it is an Em not an E. It doesnt fit with the key. Also during the solo i think it is played like this

G-------------------------4--------------------------------------
D-4-5-5-4-5-5-4-5-4-5-5-4---5-4-5-4-5-5-4-5-5-4-5-4-5-5-4-5-4-0-2

G-------------------------4--------------------------------------
D-4-5-5-4-5-5-4-5-4-5-5-4---5-4-5-4-5-5-4-5-5-4-5-4-5-5-4-5-4-5-4

good tab though i couldnt have done it


Add a comment/correction

Complimentary Christian Ringtones
Dadamobile and CGR have teamed up to bring your favorite Christian artists right to your phone. Sign up today and get 10 complementary ringtones!
Tab Country
Did you know CGR has a sister site w/ country guitar tabs? Well we do! Its called Tab Country. It has a great archive with a lot of country tabs.
Rockin Tabs
Are you looking for a site that has rock guitar tabs? Then Rockintabs.com is the place for you. It is a budding site with many rock guitar tabs. Submit your tab today.
Tab Gallery
Tab Gallery has a compilation of christian, rock, and country tabs all in one place. Come visit us.