Guitar Tabs
song title    band name

Join Us Today!

Don't strum alone...
be a part of the largest online Christian music community. Browse thousands of guitar tabs and chat w/ musicians like yourself.


It's Free!

Skillet - Invincible

This tab has been rated a 5.00 out of 5 for accuracy. (2 votes)Sorry, but you must be logged in to rate this tab.
Click here to log-in, or you can click here to register.
(Registration is free)

All songs owned by corresponding publishing company. If you make copies of any song on this website, be sure to report your usage to CCLI.
Author/Artist: Skillet
Title: Invincible
Album: Invincible
Transcribed by: jed carson
Email: godchasin@truthmail.com

1999 Photon Music

Verse
play this 3x...  then
______________        _ 
------------------------------------------------------------------------------
------------------------------------------------------------------------------
--5---------------------------------------------------------------------------
--5----4--3--3--------3-------------------------------------------------------
--3----4--3--3--------3-------------------------------------------------------
-------2--1--1--------1-------------------------------------------------------
                                                                              
Chorus-A,B,A,B 
A:
------------------------------------------------------------------------------
------------------------------------------------------------------------------
--5--5--5--5--------------------------------8--8--8--8--8--8--8--8------------
--5--5--5--5----3--3--3--3----6--6--6--6----8--8--8--8--8--8--8--8------------
--3--3--3--3----3--3--3--3----6--6--6--6----6--6--6--6--6--6--6--6------------
----------------1--1--1--1----4--4--4--4--------------------------------------
                                                                              

B:
------------------------------------------------------------------------------
------------------------------------------------------------------------------
------------------------------8--8--8--8--8--8--8--8--------------------------
--3--3--3--3----6--6--6--6----8--8--8--8--8--8--8--8--------------------------
--3--3--3--3----6--6--6--6----6--6--6--6--6--6--6--6--------------------------
--1--1--1--1----4--4--4--4----------------------------------------------------

Interlude
------------------------------------------------------------------------------
------------------------------------------------------------------------------
--5--5----4--3----------------------------------------------------------------
--5--5----4--3--------3-4-3---------------------------------------------------
--3--3----2--1--------3-4-3---------------------------------------------------
----------------------1-2-1---------------------------------------------------

Interlude2- added on two Interlude 1 before break into last chorus
------------------------------------------------------------------------------
------------------------------------------------------------------------------
------------------6--6----8----8----------------------------------------------
--6--6----8--8----6--6----8----8----------------------------------------------
--4--4----6--6----4--4----6----6----------------------------------------------
--4--4----6--6----4--4----6----6----------------------------------------------

Last Chorus- bass only, then full band

Comments about this tab

Love_Addict - 2008-06-16

Wow this is like perfect, and probably the first song that I can play through the whole thing, thanks alot!


Add a comment/correction

Complimentary Christian Ringtones
Dadamobile and CGR have teamed up to bring your favorite Christian artists right to your phone. Sign up today and get 10 complementary ringtones!
Tab Country
Did you know CGR has a sister site w/ country guitar tabs? Well we do! Its called Tab Country. It has a great archive with a lot of country tabs.
Rockin Tabs
Are you looking for a site that has rock guitar tabs? Then Rockintabs.com is the place for you. It is a budding site with many rock guitar tabs. Submit your tab today.
Tab Gallery
Tab Gallery has a compilation of christian, rock, and country tabs all in one place. Come visit us.