Guitar Tabs
song title    band name

Join Us Today!

Don't strum alone...
be a part of the largest online Christian music community. Browse thousands of guitar tabs and chat w/ musicians like yourself.


It's Free!

Sixpence None the Richer - Melody of You

This tab has been rated a 4.33 out of 5 for accuracy. (3 votes)Sorry, but you must be logged in to rate this tab.
Click here to log-in, or you can click here to register.
(Registration is free)

All songs owned by corresponding publishing company. If you make copies of any song on this website, be sure to report your usage to CCLI.
Melody of you
by Sixpence NTR


This tab is based on some chords already submitted.
The picking pattern might not be really correct, but the different "G"s
sound fairly good!

Intro
 
G                     Gmaj7 
e-------------|-----0-|-2-------2---|-0------
H-0-------0---|-2-3---|-----0-------|---3-2--
G-----0-------|-------|---0-------0-|--------
D---0-------0-|-------|-0-----0-----|--------
A-2-----2-----|-------|-------------|--------
E-------------|-------|-------------|--------
1.	You´re a
2.	
Verse

G             G/A           G
e-------------|-------------|-------------|
H-0-------0---|-0-------0---|-0-------0---|
G-----0-------|-----2-------|-----0-------|
D---0-------0-|---0-------0-|---0-------0-|
A-2-----2-----|-2-----2-----|-2-----2-----|
E-------------|-------------|-------------|
 painting with  symbols      deep
 a              poem that    flows  ca-

G/C#          G/D           Gmaj7
e-------------|-------------|-2-------2---|
H-2-------2---|-3-------3---|-----0-------|
G-----0-------|-----0-------|---0-------0-|
D---0-------0-|---0-------0-|-0-----0-----|
A-2-----2-----|-2-----2-----|-------------|
E-------------|-------------|-------------|
  sympho-      ny            soft as it
  ressing my   skin          in all these

C             D             G
e-------------|-2-------2---|-------------|
H-1-------1---|-----3-------|-0-------0---|
G-----0-------|---2-------2-|-----0-------|
D---2-------2-|-0-----0-----|---0-------0-|
A-3-----3-----|-------------|-2-----2-----|
E-------------|-------------|-------------|
 shifts from   dark be-      neath,  
 things you re-                                  

F#            Bm
e-------------|-------------|
H-2-------2---|-3-------3---|
G-----3-------|-----4-------|
D---4-------4-|---4-------4-|
A-4-----4-----|-2-----2-----|
E-------------|-------------|
side and      I want to

D6            Em6          F#
flow from the pen, bow and brush
Bm        D6         Em6    F#
with paper and string and canvas touch
Bm         D6     Em6       F#
With ink in the air to dust your light
F#
From morning to the black of night


Chorus:
G                   D             F#
e--------|-------0--|-2-------2---|------------|
H-0---0--|-2--3-----|-----3-------|-2------2---|
G---0----|----------|---2-------2-|-----3------|
D--0---0-|----------|-0-----0-----|---4------4-|
A-2--2---|----------|-------------|-4-----4----|
E--------|----------|-------------|------------|
This is my call, I be-  long to
you,     this is my call to sing the melodies of
you,

D           F#         G
this is my call, I can do nothing else,
A2
I can do nothing else.


Here are the chords I use:

320003 G
32020x G/A
32002x G/C#
32003x G/D
320003 Gmaj7
032010 C
x00232 D
244322 F#
022020 Em6
x00202 D6
000220 A2
224432 Bm

Comments about this tab

No comments/corrections found. Add your own

Complimentary Christian Ringtones
Dadamobile and CGR have teamed up to bring your favorite Christian artists right to your phone. Sign up today and get 10 complementary ringtones!
Tab Country
Did you know CGR has a sister site w/ country guitar tabs? Well we do! Its called Tab Country. It has a great archive with a lot of country tabs.
Rockin Tabs
Are you looking for a site that has rock guitar tabs? Then Rockintabs.com is the place for you. It is a budding site with many rock guitar tabs. Submit your tab today.
Tab Gallery
Tab Gallery has a compilation of christian, rock, and country tabs all in one place. Come visit us.