Guitar Tabs
song title    band name

Join Us Today!

Don't strum alone...
be a part of the largest online Christian music community. Browse thousands of guitar tabs and chat w/ musicians like yourself.


It's Free!

This tab has not yet been rated for accuracy.Sorry, but you must be logged in to rate this tab.
Click here to log-in, or you can click here to register.
(Registration is free)

All songs owned by corresponding publishing company. If you make copies of any song on this website, be sure to report your usage to CCLI.
Drifting
by Sixpence None the Richer/Slocum
copyright 1995  le tigre sur un ballon publishing (ascap)
tabbed by Eclipsoes@aol.com

This is one of my fav Sixpence Songs so here's the tab for it.  The
exact transcription may not be perfect, but this should give you some ideas.
Lyrics and order are at the bottom.  (Thanks to whoever did the chords...
helped a lot :)

Riff 1  (Opening Riff)
|-5-5-5-5-5---5-5-5-5-5----------------------------------------
|-5-5-5-5-5---5-5-5-5-5----------------------------------------
|-5-5-5-5-5---5-5-5-5-5----------------------------------------
|-7-7-7-5-7---7-7-7-5-7----------------------------------------
|-7-7-7-7-7---7-7-7-7-7----------------------------------------
|-5-5-5-5-5---5-5-5-5-5----------------------------------------

Riff 2 (Verse Riff)
|--5---5-----5---5-----5---5-----5---5------5---5-----5---5----
|-8-5----8--8-5----8--8-5----8--8-5----8---8-5----8--8-5----8--
|--------------------------------------------------------------
|--------------------------------------------------------------
|--------------------------------------------------------------
|--------------------------------------------------------------

|--5---5-----5---5----7--7--8---7--7--8---7--7--8--------------
|-8-5----8--8-5----8---8--8--8---8--8--8---8--8--8-------------
|-----------------------7--7------7--7------7--7---------------
|--------------------------------------------------------------
|--------------------------------------------------------------
|--------------------------------------------------------------

|-7--7--8---7--7--8---7--7--8----5-5-5--5-5--5-5-5--5-5--------
|--8--8--8---8--8--8---8--8--8---5-5-5--5-5--5-5-5--5-5--------
|---7--7------7--7------7--7-----5-5-5--5-5--5-5-5--5-5--------
|--------------------------------7-7-7--5-7--7-7-7--5-7--------
|--------------------------------7-7-7--7-7--7-7-7--7-7--------
|--------------------------------5-5-5--5-5--5-5-5--5-5--------

Riff 3 (Chorus Riff)
|--------------------------------------------------------------
|--12/13----12-12/13---12-12/13-13/12---------13/12----12/13---
|-------12----------12---------------14/12--14-------12--------
|--------------------------------------------------------------
|--------------------------------------------------------------
|--------------------------------------------------------------

|--------------------------------------------------------------
|--12/13----12-12/13---12-12/13-13/12---------13/12----12/13---
|-------12----------12---------------14/12--14-------12--------
|--------------------------------------------------------------
|--------------------------------------------------------------
|--------------------------------------------------------------

|-5-5---3-3---5-5---3-3---8-8-8-8-8-8-8-8-----0------0---------
|-5-5---3-3---5-5---3-3---8-8-8-8-8-8-8-8----1-1-1---0---------
|-5-5---4-4---5-5---4-4---------------------2---2----0---------
|-7-7---5-5---7-7---5-5--------------------2---------2---------
|-7-7---5-5---7-7---5-5------------------------------2---------
|-5-5---3-3---5-5---3-3------------------------------0---------

Solo Intro and Background
|-0-0--0--0-0-0--0-0-0--3-3-3--------------------------------------
|-1-1--1--1-1-1--1-1-1--0-0-0--------------------------------------
|-2-2--2--0-0-0--2-2-2--0-0-0--------------------------------------
|-2-2--0--2-2-2--3-3-3--0-0-0--------------------------------------
|-0-0--2--3-3-3--3-3-3--2-2-2--------------------------------------
|-0-0--0--0-0-0--0-0-0--3-3-3--------------------------------------


Solo           (this part's played fast)    
|-5-5-5-3-7-5-5------------------------------------------------
|------------------5-3-1-0--1----------------------------------
|--------------5-5--------2--2-0----0--0------------------------
|--------------------------------0h2--2-2-2-0------------------
|--------------------------------------------------------------
|--------------------------------------------------------------

Opening:  Riff 1 x3
 
Riff 2                      

Chorus:
Riff 3

Riff 2

Solo Intro x4

Solo x2

Riff 1 

Chorus (A little different, but you'd figure it out)

It's not exact, transcription wise, but it's close.  Listen to the song
on the CD, so you can get an idea on what I put up here.

Comments about this tab

No comments/corrections found. Add your own

Complimentary Christian Ringtones
Dadamobile and CGR have teamed up to bring your favorite Christian artists right to your phone. Sign up today and get 10 complementary ringtones!
Tab Country
Did you know CGR has a sister site w/ country guitar tabs? Well we do! Its called Tab Country. It has a great archive with a lot of country tabs.
Rockin Tabs
Are you looking for a site that has rock guitar tabs? Then Rockintabs.com is the place for you. It is a budding site with many rock guitar tabs. Submit your tab today.
Tab Gallery
Tab Gallery has a compilation of christian, rock, and country tabs all in one place. Come visit us.