Guitar Tabs
song title    band name

Join Us Today!

Don't strum alone...
be a part of the largest online Christian music community. Browse thousands of guitar tabs and chat w/ musicians like yourself.


It's Free!

This tab has been rated a 5.00 out of 5 for accuracy. (1 vote)Sorry, but you must be logged in to rate this tab.
Click here to log-in, or you can click here to register.
(Registration is free)

All songs owned by corresponding publishing company. If you make copies of any song on this website, be sure to report your usage to CCLI.
"Circle of Error"
Sixpence None the Richer
Album: this beautiful mess
Words: Matt Slocum Music: Matt Slocum
Copyright:1995 le tigre sur un ballon publishing (ascap)

Circle of Error

Opening Riff:   Play 4 times through before the vocals join in.

e-------------3-----------------0----------------------------------------0---
B--------1------1------------1-----1--------------3------------------3-----1-
G----2--------------2-----0------------0-------0-----0----------0------------
D-0--------------------4---------------------2-----------0----0--------------
A------------------------------------------3----------------2----------------
E----------------------------------------------------------------------------

The opening above is based  on the following chords played throughout
the
song.

D7sus=  e-  3       Csus6= e-   0          C= e-   0        G/B= e-  x
        B-  1              B-   1             B-   1             B-  3
        G-  2              G-   0             G-   0             G-  0
        D-  0              D-   3             D-   2             D-  0
        A-  0              A-   0             A-   3             A-  2
        E-  x              E-   x             E-   x             E-  x

D7sus                Csus6              C                    G/B
D7sus                Csus6              C                    G/B
D7sus                Csus6              C                    G/B
D7sus                Csus6              C                    G/B

Chorus:
Am          F        C                  G
Am          F        C                  G       D7sus

*On the D7sus at the end of the chorus go right back into the opening tab riff two times.

Verse two played with the same chords.
  

Chorus:

This time play the chorus 4 times through.  At the end do not end on the
D7sus like the last time.  This time end on an "F," and you will move into
the bridge.

Bridge:
F         C          F             C  G/B              Am            F
                        
*I don't happen to know the solo at this point, but I do know that if you
play the opening riff twice through again, it will sound just dandy.

Fade out playing the chorus.  Enjoy!  It's a very honest song!

Comments about this tab

deadlikefred - 2004-04-28

I have been listening to the guitars really closely. I think this extra part is played during the verse:
-----10---------10---------10--------------10-------------------
---13---------13---------12---------12-13-----------------------
-12---------12---------11--------11-----------------------------
----------------------------------------------------------------
----------------------------------------------------------------
----------------------------------------------------------------
over where I'm going and where I've been.


Add a comment/correction

Complimentary Christian Ringtones
Dadamobile and CGR have teamed up to bring your favorite Christian artists right to your phone. Sign up today and get 10 complementary ringtones!
Tab Country
Did you know CGR has a sister site w/ country guitar tabs? Well we do! Its called Tab Country. It has a great archive with a lot of country tabs.
Rockin Tabs
Are you looking for a site that has rock guitar tabs? Then Rockintabs.com is the place for you. It is a budding site with many rock guitar tabs. Submit your tab today.
Tab Gallery
Tab Gallery has a compilation of christian, rock, and country tabs all in one place. Come visit us.