Guitar Tabs
song title    band name

Join Us Today!

Don't strum alone...
be a part of the largest online Christian music community. Browse thousands of guitar tabs and chat w/ musicians like yourself.


It's Free!

This tab has not yet been rated for accuracy.Sorry, but you must be logged in to rate this tab.
Click here to log-in, or you can click here to register.
(Registration is free)

All songs owned by corresponding publishing company. If you make copies of any song on this website, be sure to report your usage to CCLI.
Author/Artist: Shaded Red
Title: Sunk
Album: untitled
Transcribed by: jed carson
Email: godchasin@truthmail.com

1997 Big Cadence Songs

Verse 1
F#m
Caught in the undertow, down I go
C#m 
Deep dark below
F#m
Hold my breath fight to find, anything 
C#m 
some sort of lifeline

Bridge riff (w/ tremelo)
  A                                                       C#m
------------------------------------------------------------------------------
-----------2h3p2----------------2h3p2----------------4h5p4--------------------
--------2---------2----------2---------2----------6---------6-----------------
-----2--------------------2--------------------6------------------------------
--0--------------------0--------------------4---------------------------------
------------------------------------------------------------------------------
  Sunk                                      Can        I ?
  pay                                        any      thing      to
                                G                         Asus7    G/B
------------------------------------------------------------------------------
------------4h5p4----------------3----------------3----------3----------------
--------6----------6----------0-----0----------0----------0-------------------
-----6---------------------0-----------0--------------------------------------
--4-----------------------------------------0--------0h2----------------------
------------------------3-----------------------------------------------------
  find      my          way                         to   the    
  get       new         life                        lift  me

  D
-----------2h3p2----------------2h3p2-----------------------------------------
--------3---------3----------3---------3--------------------------------------
-----2--------------------2---------------------------------------------------
--0--------------------0------------------------------------------------------
------------------------------------------------------------------------------
------------------------------------------------------------------------------
  surface              I        would
  up    from  this     compro

Interlude
  F#11?                                             start F#5 here--_
-------0--------0--------0--------0-------------0---------0-------------------
----------0--------0--------0--------0-------------0---------0----------------
-------------3--------3-------------------------------3-----------------------
------------------------------------------------------------------------------
------------------------------------------------------------------------------
--2----------------------------3----------2-----------------------------------
  mise                                                                    Si

Chorus
(F#5) G5                             A5     E5   F#5  G5 
      lence I want to scream out, water fills my lun  gs

                  A5               E5   F#5   F5
I want to get out but it's just beg   un

          B5      G5             E5 
I can't breathe      I want to leave

     G5      F#5     Bm(B5)-F#m(F#5)-G(G5)-Asus-A(A5)
Oh I need you to save me now

Verse 2
F#m
Upside down turn around aquabound
C#m 
swim to the ground
F#m
endless war ocean floor needing more
C#m 
any way I'm done for

Bridge

Interlude

Chorus

Solo 
based on
Bm(B5)-F#m(F#5)-G(G5)-Asus-A(A5)
end of solo:
------------------------------------------------------------------------------
------------------------------------------------------------------------------
--7----9----11/12\11----14----------------------------------------------------
--x----x----x-/x-\x-----x-----------------------------------------------------
--5----7----9-/10\9-----12----------------------------------------------------
------------------------------------------------------------------------------

Extended interlude
play 3x_______________________________    
-------0--------0--------0--------0-------------0---------0-------------------
----------0--------0--------0--------0-------------0---------0----------------
-------------3--------3-------------------------------3-----------------------
------------------------------------------------------------------------------
------------------------------------------------------------------------------
--2----------------------------3----------2-----------------------------------

Chorus
end with:
G5
now
   F#5     G5
to save me now
   F#5     Bm   
to save me now

Acoustic chords
  F#m  C#m    Bm   G    Asus A
--2----4------2----3----0----0------------------------------------------------
--2----4h5----3----3----3----2------------------------------------------------
--2----6------4----4----2----2------------------------------------------------
--4----6------4----5----2----2------------------------------------------------
--4----4------2----5----0----0------------------------------------------------
--2----------------3----------------------------------------------------------

Electric chords     
  E5   F5   F#5  G    B5   A5
------------------------------------------------------------------------------
------------------------------------------------------------------------------
----------------------4-------------------------------------------------------
--2----3----4----5----4----7--------------------------------------------------
--2----3----4----5----2----7--------------------------------------------------
--0----1----2----3---------5--------------------------------------------------

Comments about this tab

No comments/corrections found. Add your own

Complimentary Christian Ringtones
Dadamobile and CGR have teamed up to bring your favorite Christian artists right to your phone. Sign up today and get 10 complementary ringtones!
Tab Country
Did you know CGR has a sister site w/ country guitar tabs? Well we do! Its called Tab Country. It has a great archive with a lot of country tabs.
Rockin Tabs
Are you looking for a site that has rock guitar tabs? Then Rockintabs.com is the place for you. It is a budding site with many rock guitar tabs. Submit your tab today.
Tab Gallery
Tab Gallery has a compilation of christian, rock, and country tabs all in one place. Come visit us.