Guitar Tabs
song title    band name

Join Us Today!

Don't strum alone...
be a part of the largest online Christian music community. Browse thousands of guitar tabs and chat w/ musicians like yourself.


It's Free!

This tab has not yet been rated for accuracy.Sorry, but you must be logged in to rate this tab.
Click here to log-in, or you can click here to register.
(Registration is free)

All songs owned by corresponding publishing company. If you make copies of any song on this website, be sure to report your usage to CCLI.
Innocence
Shaded Red
Jason Hobbes (boyonastring1@juno.com)

INTRO RIFF: -(Repeat twice. Acoustic plays F#m  D A E/G# twice.)
e|--------------------
B|--------------------
G|-------2-1----------
D|--4-4-------4--2----
A|--------------------
E|--------------------

(Electric comes in)
F#m   D   A   E/G#    2X

VERSE: 
Bm     A  E
   Feel my heart it's ever bleeding
Bm               A   E
   Through spear and thorns I gave you pardon
Bm                A  E                     Bm A  E
   Won't you take my hand and hold it as we fly away

CHORUS: 
F#m       D        A      E/G#
   I will be there if you called me now
F#m       D         A       E/G#
   I will run 'till I could run no more
F#m       D        A     E/G#     F#m D        A    E/G#
   I will hold you and renew your innocence... yeah yeah

VERSE: 
Bm        A    E
   Though your sin be red as scarlet
Bm            A    E
   Through burning coals your past forgotten
Bm                A  E                       Bm A    E
   Won't you take my love and forever you will live again

REPEAT CHORUS

BRIDGE: 
Bm      A     E
   Come enter in and be washed clean
Bm                A      E
   From the traps that ensnare you
Bm        A             E                         Bm  A  E
   Know a real love for once your chains now set free

SOLO:
e|---------------------------------------------------|----
B|-----------------------------7h9-9/10--10/12-9v----|----
G|--11--9h11---9h11p9h11p9h11------------------------|-2X-
D|---------------------------------------------------|----
A|---------------------------------------------------|----
E|---------------------------------------------------|----



e|--10------------10---------------------------------------------
B|--12h14--12h14--12h14p12h14p12h14--14h16-16/17--19b19b19b19b*--
G|---------------------------------------------------------------
D|---------------------------------------------------------------
A|---------------------------------------------------------------
E|---------------------------------------------------------------

e|--10------------10--------------------------------------------|
B|--12h14--12h14--12h14p12h14p12h14--14h16-16/17-17h19--16------|
G|--------------------------------------------------------------|
D|--------------------------------------------------------------|
A|--------------------------------------------------------------|
E|--------------------------------------------------------------|

REPEAT CHORUS

ENDING:
F#m

Comments about this tab

No comments/corrections found. Add your own

Complimentary Christian Ringtones
Dadamobile and CGR have teamed up to bring your favorite Christian artists right to your phone. Sign up today and get 10 complementary ringtones!
Tab Country
Did you know CGR has a sister site w/ country guitar tabs? Well we do! Its called Tab Country. It has a great archive with a lot of country tabs.
Rockin Tabs
Are you looking for a site that has rock guitar tabs? Then Rockintabs.com is the place for you. It is a budding site with many rock guitar tabs. Submit your tab today.
Tab Gallery
Tab Gallery has a compilation of christian, rock, and country tabs all in one place. Come visit us.