Guitar Tabs
song title    band name

Join Us Today!

Don't strum alone...
be a part of the largest online Christian music community. Browse thousands of guitar tabs and chat w/ musicians like yourself.


It's Free!

Blindside - Superman

This tab has been rated a 3.25 out of 5 for accuracy. (4 votes)Sorry, but you must be logged in to rate this tab.
Click here to log-in, or you can click here to register.
(Registration is free)

All songs owned by corresponding publishing company. If you make copies of any song on this website, be sure to report your usage to CCLI.
Song: Superman
Album: Blindside
Artist: Blindside
Written by: Blindside
Tabbed by: Lance, Aaron and The Spidertone (Spidertone@aol.com)
This song has a really weird rhythm, my drummer friend says that it is
in 14/7 (but i think he just counts funny), so i didn't put the rhythms
in here, listen to the cd and you should be able to figure it out for
yourself.
intro and verse:
e:------------------------------------------------------------------
b:------------------------------------------------------------------
g:------------------------------------------------------------------
d:--------------------------5h6p5------7------------------------5*--
a:-----------------5--7--------------7--------------------5--7------
E:----0-0--0----------------------------------0-0--0----------------
*When the distortion comes on there is a slight hesitation before this
note is played.
then the chorus of sorts goes like this:
e:--------------------------------------------------------
b:--------------------------------------------------------
g:--------------------------------------------------------
d:---2---2-2---5---7--8---2---2-2--5---4---x-x------------
a:---2---2-2---5---7--8---2---2-2--5---4---x-x------------
E:---0---0-0---3---5--6---0---0-0--3---2---x-x------------
when it goes i'm no superman the guitar does this:
e:---------------------------------------
b:---------------------------------------
g:---------------------------------------
d:---2---2-2---5---7--8.....---10--8--7--
a:---2---2-2---5---7--8.....---10--8--7--
E:---0---0-0---3---5--6.....---8---6--5--
after the first time through the chorus play a couple harmonics on the
fifth fret, the play everything up to here, on the second time through
don't play the harmonics but go straight in to this:
e:--------------------------------------------------------------
b:--------------------------------------------------------------
g:--------------------------------------------------------------
d:----2-2--x---2---2-2---x--------------------------------------
a:----2-2--x---2---2-2---x--------------------------------------
E:----0-0--x---0---0-0---x--------------------------------------
play that acouple times then play this, at a little slower pace:
e:--------------------------------------------------------------
b:--------------------------------------------------------------
g:--------------------------------------------------------------
d:--2---2---3---------------------------------------------------
a:--2---2---3---------------------------------------------------
E:--0---0---1---------------------------------------------------
then play this a couple times:
e:--------------------------------------------------------------
b:--------------------------------------------------------------
g:----2--2------2--2--------------------------------------------
d:----2--2------2--2--------------------------------------------
a:----0--0------0--0--------------------------------------------
E:-----------0-----------0--------------------------------------
then play the next to last riff a couple times and end the song on an e.
there you have, blindside is awesome, but God is more so,
Walk on <>

Comments about this tab

Addero - 2006-04-08

Wow, that's really close. There's a bit that's off, but nothing that really makes that big of a difference. For instance, there's an extra Open E played in the intro/verse, so you play it open 4 times instead of 3. But that's just me being a loser and looking for the tiniest things.
Great job on the tab, it's one of my favorite older Blindside songs.
God Bless + Love and Kisses;
Jeremy


a_random_duck - 2006-08-15

Nice job. I haven't played it to the CD much yet, but it's really close from what I can tell.
Keep groovin.
-a random duck


Add a comment/correction

Complimentary Christian Ringtones
Dadamobile and CGR have teamed up to bring your favorite Christian artists right to your phone. Sign up today and get 10 complementary ringtones!
Tab Country
Did you know CGR has a sister site w/ country guitar tabs? Well we do! Its called Tab Country. It has a great archive with a lot of country tabs.
Rockin Tabs
Are you looking for a site that has rock guitar tabs? Then Rockintabs.com is the place for you. It is a budding site with many rock guitar tabs. Submit your tab today.
Tab Gallery
Tab Gallery has a compilation of christian, rock, and country tabs all in one place. Come visit us.