Guitar Tabs
song title    band name

Join Us Today!

Don't strum alone...
be a part of the largest online Christian music community. Browse thousands of guitar tabs and chat w/ musicians like yourself.


It's Free!

This tab has been rated a 4.75 out of 5 for accuracy. (4 votes)Sorry, but you must be logged in to rate this tab.
Click here to log-in, or you can click here to register.
(Registration is free)

All songs owned by corresponding publishing company. If you make copies of any song on this website, be sure to report your usage to CCLI.
I BELIEVE by SEVENTH DAY SLUMBER

D     Am    C     G
D     Am    C     G
D     Am    C     G
D     Am    C     G 

D     Am    C     G 
D     Am    C     G
D     Am    C     G
D     Am    C     G     G-F#m-Em

PRE-CHORUS
Em    C     G-F#m-Em 
Em    C     Em-F#m-G

CHORUS
G     D     Am
G     D     Am
G     D     Am
G     D     Am

VERSE 2
(same chords as Verse 1)

Comments about this tab

7thDayBassman - 2005-04-12

sweetness, great job, im gonna take this to the other guys in the worship band at my church and see if we can play it. good job!


crossfire87 - 2005-05-30

good job. here's the intro not exact on
this part
-----------
| |
10----10----12----12----8----8----8-8/10--------------
---10----10----10----10---10---10--------10/12-8-10-8-
------------------------------------------------------
------------------------------------------------------
------------------------------------------------------
------------------------------------------------------

10----10----12----12----8----8----8-8/10--------------------
---10----10----10----10---10---10--------/12-13-12-8-8/10---
------------------------------------------------------------
------------------------------------------------------------
------------------------------------------------------------
------------------------------------------------------------

corrections welcomed i know i aint perfect
rock on for Jesus


Fortress182 - 2005-07-28

hey this is a little off topic, but i can't request tabs for some reason, so i had to do it in here. can someone request "Picking Up the Pieces" by Seventh Day Slumber for me? its a pretty sweet song, so yah, that'd be cool.


Andy Miller - 2005-07-29

This is my opinion, but, i think at the end of the verse, those last 3 chords are actually not chords. also, the same with the pre-chorus; those are just notes playing and not strings. other than that, everything else is exact! nice tab and keep it up! God bless!
-Andy Miller


rockinchair - 2005-07-29

The bridge is different than the 1st and 2nd verse too, I believe. I play it like this:
C G Em D
C G Em D

it sounds right when you play that with the cd.


Add a comment/correction

Complimentary Christian Ringtones
Dadamobile and CGR have teamed up to bring your favorite Christian artists right to your phone. Sign up today and get 10 complementary ringtones!
Tab Country
Did you know CGR has a sister site w/ country guitar tabs? Well we do! Its called Tab Country. It has a great archive with a lot of country tabs.
Rockin Tabs
Are you looking for a site that has rock guitar tabs? Then Rockintabs.com is the place for you. It is a budding site with many rock guitar tabs. Submit your tab today.
Tab Gallery
Tab Gallery has a compilation of christian, rock, and country tabs all in one place. Come visit us.