Guitar Tabs
song title    band name

Join Us Today!

Don't strum alone...
be a part of the largest online Christian music community. Browse thousands of guitar tabs and chat w/ musicians like yourself.


It's Free!

This tab has not yet been rated for accuracy.Sorry, but you must be logged in to rate this tab.
Click here to log-in, or you can click here to register.
(Registration is free)

All songs owned by corresponding publishing company. If you make copies of any song on this website, be sure to report your usage to CCLI.
My Friend
Seven Day Jesus
CD: Seven Day Jesus
c1998 Seven Day Jesus
Tab by Steve Cruickshank
postlambjam@hotmail.com


TUNE GUITARS DOWN HALF A STEP

Riff played in intro:
eb------------------------------------------------
Bb------------------------------------------------
Gb------------------------------------------------
Db------------------------------------------------
Ab---0--2-3-2-0--------------0--2-3-2-0-----------
Eb--------------0-2----3----------------0-1---3---

eb------------------------------------------------
Bb------------------------------------------------
Gb------------------------------------------------
Db------------------------------------------------
Ab---0--2-3-2-0--------------0--2-3-2-0-----------
Eb--------------0-2----3----------------0-1---4---



Main guitar riff (for intro and verse)
eb------------------------------------------------------
Bb-----1-----1------1----0-1------1-----1------1----0-1-
Gb------------------------------------------------------
Db----------------0--------------------------0----------
Ab---0--------------------------0-----------------------
Eb--------3-----2------3-------------3-----1------3-----
-----Am   Gsus  Dm7/F# Gsus     Am   Gsus  F      Gsus

Eb-------------------------------------------------------
Bb-----1-----1------1----0-1------1-----1------1---1-0---
Gb-------------------------------------------------0-----
Db----------------0--------------------------0-----0-----
Ab---0--------------------------0------------------x-----
Eb--------3-----2------3-------------3-----1-------3-----
-----Am   Gsus  Dm7/F# Gsus     Am   Gsus  F       Gsus


Am Gsus  Dm7/F# Gsus
---Is it over?
Am Gsus     F           Gsus    Am
---Like the leaves that turn to brown
Gsus    Dm7/F#
Falling down
Gsus    Am Gsus F Gsus
Blown away
Am Gsus     Dm7/F#  Gsus
---Stop the stinging
Am Gsus F      Gsus      Am
---Everytime I hear your name
Gsus       Dm7/F# Gsus      Am   Gsus F
Yes I'm to blame, nothing's changing


Chorus:
E     F                   C  G/B Am    G Gsus G
How I wish that you would be my friend
Dm    F             C    G/B Am  Gsus F
After everything is gone it ends
Fm
All alone again

Verse2:
I admit it
Always speaking out of turn
Watch it burn
Back to nothing
Just leave me holding
To anything that I can keep
And I believe in new beginnings



Bridge:
E    F               E           F              E
Underneath you I can see, how to build a better me
E          F                  Am G F
Take these hands and tie them down
E        F                  E                F                E
White is black and black is white, nothing's gained without a fight
E             F                G
And if you're wondering, yes I meant it
F      Fm            C  G/B Am  Gsus
How Im asking you to be my friend
Dm    F             C   G/B Am  Gsus
After everything is gone it ends
E        F                 C G/B Am Gsus F
Is there something left to be?
All alone again


Chorus chords:
Eb---0---1---0---3---0------------1---1---0---3---0----------------1-------
Bb---0---1---1---3---1---0-1-0----3---1---1---3---1---0-1-0-------1-1------
Gb---1---2---0---0---2---0--------2---2---0---0---2---0----------2---2--1--
Db---2---3---2---0---2---0--------0---3---2---0---2---0---------3-------3--
Ab---2---3---3---2---0---x------------3---3---2---0---x--------3--------3--
Eb---0---1---------------3------------1---------------3-------1---------1--
-----E   F   C  G/B  Am  Gsus     Dm  F   C  G/B  Am  Gsus    F         Fm

Comments about this tab

No comments/corrections found. Add your own

Complimentary Christian Ringtones
Dadamobile and CGR have teamed up to bring your favorite Christian artists right to your phone. Sign up today and get 10 complementary ringtones!
Tab Country
Did you know CGR has a sister site w/ country guitar tabs? Well we do! Its called Tab Country. It has a great archive with a lot of country tabs.
Rockin Tabs
Are you looking for a site that has rock guitar tabs? Then Rockintabs.com is the place for you. It is a budding site with many rock guitar tabs. Submit your tab today.
Tab Gallery
Tab Gallery has a compilation of christian, rock, and country tabs all in one place. Come visit us.