Guitar Tabs
song title    band name

Join Us Today!

Don't strum alone...
be a part of the largest online Christian music community. Browse thousands of guitar tabs and chat w/ musicians like yourself.


It's Free!

Blindside - One Mind

This tab has not yet been rated for accuracy.Sorry, but you must be logged in to rate this tab.
Click here to log-in, or you can click here to register.
(Registration is free)

All songs owned by corresponding publishing company. If you make copies of any song on this website, be sure to report your usage to CCLI.
Title: One Mind
Artist: Blindside
Album: (Self Titled)
Tabbed by: Nathan Bever

Intro:
G|----------676--------------|   
D|----0-4----------0-4-----5-|
A|---0---0--------0---0--6---|
E|---------------------------|
        Rhythm 1                    

G|---------676------------------------
D|----0-4--------0-4-----------------5
A|---0---0------0---0-4-0-6---4-6-----
E|--------------------------3---------
        Rhythm 2
Rhythm 1 x 3, rhythm 2, then alternate 1,2,1,2 during the verse

Chorus     (play 8x )
G|----------------------------------3
D|---5\4-5\4-8----5\4-5\4--2-2-2-2--3
A|---5\4-5\4-8----5\4-5\4--2-2-2-2--1
E|---3\2-3\2-6----3\2-3\2--0-0-0-0---
     G F#    A#   G F#     E        A#  
                           (pm)

Bridge: muted     (play 16x)
G|-----3-------3
D|-3-2-3-3-----3
A|-3-2-1-3-----1
E|-1-0---1------
   F E A# F    A#

Play the Chorus riff 8x
Bridge once

Then do this softly 4x
Low e|--3-3-3-4-4-4-5-5-2-2-2-2-2-2-2-2--|

D|-5-5-5-6-6-6-7-7-4-4-4-4-4-4-4-4-|
A|-5-5-5-6-6-6-7-7-4-4-4-4-4-4-4-4-|   Play muted 4x then open
8x
E|-3-3-3-4-4-4-5-5-2-2-2-2-2-2-2-2-|
   G      G#   A   F#

To end the song play the Bridge once more

Man I love this song!!!!!
I think that this is really close to what they actually play but if you
have any questions or corrections or even just comments please feel free
to email me at punik@juno.com
Thanx and God bless. <><

Comments about this tab

No comments/corrections found. Add your own

Complimentary Christian Ringtones
Dadamobile and CGR have teamed up to bring your favorite Christian artists right to your phone. Sign up today and get 10 complementary ringtones!
Tab Country
Did you know CGR has a sister site w/ country guitar tabs? Well we do! Its called Tab Country. It has a great archive with a lot of country tabs.
Rockin Tabs
Are you looking for a site that has rock guitar tabs? Then Rockintabs.com is the place for you. It is a budding site with many rock guitar tabs. Submit your tab today.
Tab Gallery
Tab Gallery has a compilation of christian, rock, and country tabs all in one place. Come visit us.