Guitar Tabs
song title    band name

Join Us Today!

Don't strum alone...
be a part of the largest online Christian music community. Browse thousands of guitar tabs and chat w/ musicians like yourself.


It's Free!

This tab has been rated a 4.00 out of 5 for accuracy. (1 vote)Sorry, but you must be logged in to rate this tab.
Click here to log-in, or you can click here to register.
(Registration is free)

All songs owned by corresponding publishing company. If you make copies of any song on this website, be sure to report your usage to CCLI.
Seven Day Jesus
Big House
X the birthday album
Copyright: 1998(?) Forefront Records
Tabbed by: T. Fromme

I saw this on the wishlist.  Figured I'd try it.  Its not 100% 
accurate but it's close (i think).  I borrowed my friend's "X"
album a long time ago and figured it out, but i haven't played 
this song for a good six months or so.  Please forgive me if I 
leave stuff out, but I'm doing this all from memory.

Note: Actual recording has guitars tuned down 1/2 step, this 
transcription is in standard.                                                                
                                                                
INTRO RIFF: Use distortion and palm muting (listen to CD for 
mutes), oh, yeah, also as with most of the tabs I write, I'm 
not going to put in the rhythm strokes or write how many times 
you play a chord.  If you can't figure that much out yourself
then too bad.
e -----------------------------------------------------------
B -----------------------------------------------------------
G -----------------------------------------------------------
D --3-------4-------6-------3------4-----4----2----4---------
A --3-------4-------6-------3------4-----2----4----4---------
E --1-------2-------4-------1------2-----2----2----2---------


VERSE RIFF: slightly less distortion, maybe clean if I
remember...
e -----------------------------------------------------------
B -----------------------------------------------------------
G --6----------------3----------------4--------------5---5/6-
D --6----------------3----------------4--------------5---5/6-
A --4----------------1----------------2--------------3---3/4-
E -----------------------------------------------------------

(basically repeat the chord progression for the verse until
here)

e ------------------------------------------------------------
B ------------------------------------------------------------
G -6------------3-------------------4----------------5----4---
D -6------------3-------------------4----------------5----4---
A -4------------1-------------------2----------------3----2---
E ------------------------------------------------------------


PRE CHORUS RIFF:
e ----------------------------------------------------0------
B ------------------------------------------------0----------
G -4-------------------3-----------------------2-------------
D -4-------------------3---------------------2---------------
A -2-------------------1-------------------0-----------------
E -----------------------------------------------------------

e -----------------------------------------------------------
B -----------------------------------------------------------
G -----------------------------------------------------------
D ----6--------------8---------------------------------------
A ----6--------------8---------------------------------------
E ----4--------------6---------------------------------------

CHORUS: Back to heavier dist.
e -----------------------------------------------------------
B -----------------------------------------------------------
G --------6--------------------------------------------------
D --------6-------6----------4----------------8--------------
A --------4-------6----------4----------------8--------------
E ----------------4----------2----------------6--------------

e -----------------------------------------------------------
B -----------------------------------------------------------
G ----6------------------------------------------------------
D ----6-------6----------4----------------8------------------
A ----4-------6----------4----------------8------------------
E ------------4----------2----------------6------------------

e -----------------------------------------------------------
B -----------------------------------------------------------
G ----6------------------------------------------------------
D ----6-------6----------4---------------8-------------------
A ----4-------6----------4---------------8-------------------
E ------------4----------2---------------6-------------------

e -----------------------------------------------------------
B -----------------------------------------------------------
G ----6------------------------------------------------------
D ----6-------6-----4----------------------------------------
A ----4-------6-----4----------------------------------------
E ------------4-----2----------------------------------------

(after chorus ends go right back into intro riff and then back
to the verse)

BRIDGE: (I kind of remember a real mellow bridge part, but I
can't remember it really well.  I think it goes something like
this
e -----------------------------------------------------------
B -----------------------------------------------------------
G ----------------------------------------6------------8-----
D -----8---------6----8----------6-----6----6-------8----8---
A -------8----6---------8-----6-----4---------4--6---------6-
E --6-------4------6-------4---------------------------------
    repeat this a couple of times (i think) and then go into
    the solo part

SOLO: There's no way I can tab out a solo part when I haven't 
heard the song for over six months.  I do remember the backing 
chords however.  For the solo just improv. its more fun anyway!
e ------------------------------------------------------------
B ------------------------------------------------------------
G -------6--------------6---8---11--------6-----------6-------
D --8----6----6----8----6---8---11----8---6---6---8---6--6--4-
A --8----4----6----8----4---6---9-----8---4---6---8---4--6--4-
E --6---------4----6------------------6-------4---6------4--2-
    the background chords are just the chords from the chorus
    I'm not sure how long the solo is, just play around with 
    these chords until its over and then go back to the chorus.

I think that that is just about all of the parts to the song.
I don't really remember the exact order, or how many times the
chorus and stuff is played, but this should be enough that you
can play it and sound good.  Thats it. Take it easy.

THE END

Comments about this tab

No comments/corrections found. Add your own

Complimentary Christian Ringtones
Dadamobile and CGR have teamed up to bring your favorite Christian artists right to your phone. Sign up today and get 10 complementary ringtones!
Tab Country
Did you know CGR has a sister site w/ country guitar tabs? Well we do! Its called Tab Country. It has a great archive with a lot of country tabs.
Rockin Tabs
Are you looking for a site that has rock guitar tabs? Then Rockintabs.com is the place for you. It is a budding site with many rock guitar tabs. Submit your tab today.
Tab Gallery
Tab Gallery has a compilation of christian, rock, and country tabs all in one place. Come visit us.