Guitar Tabs
song title    band name

Join Us Today!

Don't strum alone...
be a part of the largest online Christian music community. Browse thousands of guitar tabs and chat w/ musicians like yourself.


It's Free!

Bleach - Waving Goodbye

This tab has not yet been rated for accuracy.Sorry, but you must be logged in to rate this tab.
Click here to log-in, or you can click here to register.
(Registration is free)

All songs owned by corresponding publishing company. If you make copies of any song on this website, be sure to report your usage to CCLI.
Author/Artist: Bleach
Title: Waving Goodbye
Album: Static
Copyright: 1998 ForeFront Records
Transcribed by: T. Fromme
Email: jfromme@cornerstonechurch.com

I saw this on the wish list and figured, ah, what the heck I'll give it a try.  
I think that this is the best song on "Static" except maybe for Rundown Town. 
There is no guitar in the first verse, and just a few riffs in the second. 
What I have tabbed out for the first verse is just the bass, but if you're 
just playing by yourself, then try it on your guitar, also I did not tab out 
the solo, just the A pent. scale (because I didn't have the CD with me), 
so please don't email me and tell me that the solo is wrong.  I think it's 
more fun to make up your own stuff anyway.  Well here is the tab. Enjoy:)  



----|-------------------------------------------------------------------------
-9--|-------------------------------------------------------------------------
-10-|-------------------------------------------------------------------------
-10-|-------------------------------------------------------------------------
-8--|----------------7------------------------------7--5----------------------
----|-5-5/9-12-4--------2------------5-5/9-12-4-------------------------------
    
------------------------------------------------|-----------------------------
------------------------------------------------|-----------------------------
---------------------------------------------7--|-7---------------------------
---------------------------------------------7--|-7---------------------------
----------------------7----------------------5--|-5---------------------------
------5-5/9-12-4----------2---------------------|-----------------------------

------|-----------------------------------------------------------------------
------|-----------------------------------------------------------------------
--7-7-|--------------------------------7-7-----------------------------7-7----
--7-7-|-7-------------2----------------7-7-7---------------2-----------7-7-7--
--5-5-|-7-------------2----------------5-5-7---------------2-----------5-5-7--
------|-5-------------0--------------------5---------------0---------------5--

---------------------------------------|--------------------------------------
---------------------------------------|--------------------------------------
---------------------7-----------------|-6-6-4--6--4--------------------------
----------2----4-----7-----------------|---------------7\4--------------------
----------2----4-----5-----------------|--------------------------------------
----------0----2-----------------------|--------------------------------------  

------------------------------------------------------------------------------
------------------------------------------------------------------------------
------------------------------------------------------------------------------
------------------------------------------------------------------------------
----------------7--5---------------------------------7------------------------
--5-5/9-12-4----------------------------5-5/9-12--4------2--------------------

---------------------------------------------------|-5---4---3---1--|---------
---------------------------------------------------|-5---5---2---1--|---------
--------7--------------------------------------7-7-|-6---6---3---2--|---------
--------7--------------------------------------7-7-|-7---6---0---3--|---------
--------5--------------------------------------5-5-|-7---4-------3--|---------
---------------------------------------------------|-5-----------1--|---------
solo chords     
      
--5-2-----------------------------------------5-7-5-4-2-----------------------
------5-2---------------------------------5-7-----------5-3-2-----------------
----------4-2-------------------------4-6---------------------4-2-------------
--------------4-2-----------------4-7-----------------------------------------
------------------4-2---------4-7---------------------------------------------
----------------------5-2-5-7-------------------------------------------------
The solo is just fooling around with this scale, Just play around try to make up your own thing.

Comments about this tab

No comments/corrections found. Add your own

Complimentary Christian Ringtones
Dadamobile and CGR have teamed up to bring your favorite Christian artists right to your phone. Sign up today and get 10 complementary ringtones!
Tab Country
Did you know CGR has a sister site w/ country guitar tabs? Well we do! Its called Tab Country. It has a great archive with a lot of country tabs.
Rockin Tabs
Are you looking for a site that has rock guitar tabs? Then Rockintabs.com is the place for you. It is a budding site with many rock guitar tabs. Submit your tab today.
Tab Gallery
Tab Gallery has a compilation of christian, rock, and country tabs all in one place. Come visit us.