Guitar Tabs
song title    band name

Join Us Today!

Don't strum alone...
be a part of the largest online Christian music community. Browse thousands of guitar tabs and chat w/ musicians like yourself.


It's Free!

Rice, Chris - Sometimes Love

This tab has not yet been rated for accuracy.Sorry, but you must be logged in to rate this tab.
Click here to log-in, or you can click here to register.
(Registration is free)

All songs owned by corresponding publishing company. If you make copies of any song on this website, be sure to report your usage to CCLI.
Title: Sometimes Love
Artist: Chris Rice
Album: Deep Enough To Dream
Transcribed: Daniel Bradish

Intro: [Em     D] x4

Verse 1:
Em   
   Is our world spinning backwards?          
         D
What has brought about this change?
C                                       G    
   Can't you see that people aren't the same?
Em   
   I wish I were dreamin'          
          D     
And could wake up from my sleep
C                                     G   
   And find us all the way we used to be.           
           F                 C 
'Cause the love that used to be is dying
F             C           C   
   Is anybody even trying?      
      F                  C
And I don't know how,  I don't know why    
    D               Dsus D
But something is my soul is crying

Chorus:
G                     D                 C2          C
Sometimes love has to drive a nail into its own hand 
(echo on 2nd chorus)
G                     D                 C2          C 
Sometimes love has to drive a nail into its own hand 
(echo both choruses)

Verse 2: 
  Em
e:---------------------I
B:---------------------I
G:---------------------I
D:--5-4----------------I
A:------7-5------------I
E:----------7-5-3-5-0--I

Em   
   One pair of hands,           
           D
Broke some bread and washed some feet
C                                   G   
   Opened eyes and soothed an angry sea,
Em   
   Belonged to a man          
          D
Who could see the deepest need
C                                  G   
   And showed us the way it has to be
          F                   C
'Cause he knew the price that love requires
      F              C          C
And he laid down His own desires 
             F                C
He stretched out His hands to save His friends
    D             Dsus D
And said no other love is higher   (Listen to me now, singin')

Repeat Chorus

Solo: [Repeat Chorus Chords Over Solo]
e:--------------10-10---------------------------I
B:---8s10-12-12-------12---12h13p12-12-10-10-10-I
G:-7------------------------------------9--9--9-I
D:----------------------------------------------I

e:---------------------------------------------------------I
B:-15s17-17-17-17s15-15-15s13-13-13------------------------I
G:-14s16-16-16-16s14-14-14s12-12-12----------12-14~~-12----I
D:----------------------------------14-12h14------------14-I

e:-----------------------------------------------------I
B:------------------12b13r12-12b13r12-12b13r12-12p10~~-I
G:----------------0------------------------------------I
D:-12-9h10p9-10p9--------------------------------------I

e:-15-14-10h12-10-10-8-8---------------------3-I
B:-------------10-10-8-8-8-------------------3-I
G:-------------------------9---9-7-5-4-2p0-0-0-I
D:-------------------------------------------0-I

Bridge:
G                   D               C    
Love can change us, love can make a way
     G                   D               C   
Only love can change us, love can make a way.
[Sing Bridge Three Times]
[Background Sings The Bridge On Second And Chorus On Third]

Em
   I wish I were dreamin'
          D               Dsus
And could wake up from my sleep
C                                     G
   And find us all the way we used to be

Comments about this tab

No comments/corrections found. Add your own

Complimentary Christian Ringtones
Dadamobile and CGR have teamed up to bring your favorite Christian artists right to your phone. Sign up today and get 10 complementary ringtones!
Tab Country
Did you know CGR has a sister site w/ country guitar tabs? Well we do! Its called Tab Country. It has a great archive with a lot of country tabs.
Rockin Tabs
Are you looking for a site that has rock guitar tabs? Then Rockintabs.com is the place for you. It is a budding site with many rock guitar tabs. Submit your tab today.
Tab Gallery
Tab Gallery has a compilation of christian, rock, and country tabs all in one place. Come visit us.