Guitar Tabs
song title    band name

Join Us Today!

Don't strum alone...
be a part of the largest online Christian music community. Browse thousands of guitar tabs and chat w/ musicians like yourself.


It's Free!

Rice, Chris - Big Enough

This tab has been rated a 4.67 out of 5 for accuracy. (3 votes)Sorry, but you must be logged in to rate this tab.
Click here to log-in, or you can click here to register.
(Registration is free)

All songs owned by corresponding publishing company. If you make copies of any song on this website, be sure to report your usage to CCLI.
Song:Big Enough
Artist:Chris Rice
Album:Past the Edges
Copyright 1998 Clumsy Fly Music/Ascap
Tabbed by: Hank Miller (ehm88@aol.com)

This song is in 3/4 time.

Song structure:
1. Intro, 2. Verse, 3. Chorus, 4. Intro,
5. Verse, 6. Chorus, 7. Bridge, 8. Chorus,
9. Tag, 10. End with intro

   Intro:                                                           end intro
      Dsus2              G                 D/F#              Em               
E||-----------0-------|-----------------|-----------------|------------------||
B||--------------3----|-------3---------|-------3---------|------------------||
G||*-------2----------|--4---------4----|--2---------2----|--0----2----4----*||
D||*--0---------------|-----------------|-----------------|-----------------*||
A||-------------------|-----------------|-----------------|------------------||
E||-------------------|--3--------------|--2--------------|--0----2----3-----||


Begin Verse:
  D                 D/C#              D/B               D/F#            
-----------------|-----------------|-----------------|-----------------|
------------3----|------------3----|------------3----|-----------------|
-------2---------|-------2---------|-------2---------|------------2----|
--0--------------|-----------------|-----------------|-------0---------|
-----------------|--4--------------|--2--------------|-----------------|
-----------------|-----------------|-----------------|--2--------------|
  None of us        knows and this    makes it a        mystery

                  G                 D/F#                            
---------------|-----------------|-----------------|---------------|
--3------------|-----------------|-----------------|--3------------|
---------------|------------0----|------------2----|---------------|
---------------|-------0---------|-------0---------|---------------|
---------------|-----------------|-----------------|---------------|
---------------|--3--------------|--2--------------|---------------|
             If   life is a         comedy                     then

  G                 D/F#                                               
-----------------|-----------------|---------------|------------------|
-----------------|-----------------|--3------------|--3-3-------------|
------------0----|------------2----|---------------|--0h2---2----0----|
-------0---------|-------0---------|---------------|--------4----2----|
-----------------|-----------------|---------------|------------------|
--3--------------|--2--------------|---------------|------------------|
  why all the       tragedy?

  D                 D/C#              D/B               D/F#            
-----------------|-----------------|-----------------|-----------------|
------------3----|------------3----|------------3----|-----------------|
-------2---------|-------2---------|-------2---------|------------2----|
--0--------------|-----------------|-----------------|-------0---------|
-----------------|--4--------------|--2--------------|-----------------|
-----------------|-----------------|-----------------|--2--------------|
  Three and a       half pounds of    brain try to      figure out

                  G                 D/F#                            
---------------|-----------------|-----------------|---------------|
--3------------|-----------------|-----------------|--3------------|
---------------|------------0----|------------2----|---------------|
---------------|-------0---------|-------0---------|---------------|
---------------|-----------------|-----------------|---------------|
---------------|--3--------------|--2--------------|---------------|
          what    this world is     all about                 and is 

  Bm                Asus4             A                 Asus4           
-----------------|-----------------|-----------------|-----------------|
------------3----|--3--------------|--2--------------|--3--------------|
-------4---------|-------2---------|-------2---------|-------2---------|
-----------------|------------2----|------------2----|------------2----|
--2--------------|--0--------------|--0--------------|--0--------------|
-----------------|-----------------|-----------------|-----------------|
  there an         eternity

  A                 Asus4             A                 Asus2           
-----------------|-----------------|-----------------|-----------------|
--2--------------|--3--------------|--2--------------|--0--------------|
-------2---------|-------2---------|-------2---------|-------2---------|
------------2----|------------2----|------------2----|------------2----|
--0--------------|--0--------------|--0--------------|--0--------------|
-----------------|-----------------|-----------------|-----------------|
    is there an    eternity

     end verse  Begin Chorus:
  A               G                 D/F#              A               
--0------------|-----------------|-----------------|-----------------|
--2------------|--3--------------|--3--------------|--2--------------|
--2------------|-------0---------|-------2---------|-------2---------|
--2------------|------------0----|------------0----|------------2----|
--0------------|-----------------|-----------------|--0--------------|
---------------|--3--------------|--2--------------|-----------------|
                  God if You're     there             I wish You'd

  A    D           G                 D/F#              A               
----------------|-----------------|-----------------|-----------------|
--2----3--------|--3--------------|--3--------------|--2--------------|
--2----2--------|-------0---------|-------2---------|-------2---------|
----------------|------------0----|------------0----|------------2----|
--0----0--------|-----------------|-----------------|--0--------------|
----------------|--3--------------|--2--------------|-----------------|
  show me      and God if You        care then         I need you to 

                    G                 D/F#              A               
-----------------|-----------------|-----------------|-----------------|
--2--------------|--3--------------|--3--------------|--2--------------|
-------2---------|-------0---------|-------2---------|-------2---------|
------------2----|------------0----|------------0----|------------2----|
--0--------------|-----------------|-----------------|--0--------------|
-----------------|--3--------------|--2--------------|-----------------|
know me             I hope You        don't mind me     asking the 

  Bm                Em                                  Asus4           
-----------------|-----------------|----------0------|-----------------|
--3--------------|-----------------|--0h-3-----------|--3--------------|
-------4---------|------------0----|-----------------|-------2---------|
------------4----|-------2---------|-----------------|------------2----|
--2--------------|-----------------|-----------------|--0--------------|
-----------------|--0--------------|-----------------|-----------------|
  questions but I                     figure You're     big enough

  A                 Em                                  Asus4           
-----------------|-----------------|----------0------|-----------------|
--2--------------|-----------------|--0h-3-----------|--3--------------|
-------2---------|------------0----|-----------------|-------2---------|
------------2----|-------2---------|-----------------|------------2----|
--0--------------|-----------------|-----------------|--0--------------|
-----------------|--0--------------|-----------------|-----------------|
                                    I figure You're   big enough
      end Chorus  Bridge:

  A                 Bm                                E7              
-----------------|-----------------|---------------|-----------------|
--2--------------|-------3----3----|--3------------|-------3----3----|
-------2---------|-------4----4----|--4------------|-------4----4----|
------------2----|-----------------|---------------|-----------------|
--0--------------|--2--------------|---------------|-----------------|
-----------------|-----------------|---------------|--0--------------|
             When I imag-ine  the     size of the     U  - ni - verse 

                  Asus4             A                 D         Dsus4 
---------------|-----------------|-----------------|--2---------3----|
--3------------|-------3----3----|--2--------------|------------3----|
--4------------|-------2----2----|-------2---------|-------2----2----|
---------------|-----------------|------------2----|--0---------2----|
---------------|--0--------------|--0--------------|-----------------|
---------------|-----------------|-----------------|-----------------|
          and I   wonder what's     out past the      edges

  D                 Bm                                E7              
--2--------------|-----------------|---------------|-----------------|
-------3---------|-------3----3----|--3------------|-------3----3----|
------------2----|-------4----4----|--4------------|-------4----4----|
--0--------------|-----------------|---------------|-----------------|
-----------------|--2--------------|---------------|-----------------|
-----------------|-----------------|---------------|--0--------------|
         then I dis-cov -er   in -    side   me a     pace as   big

                  Asus4             A                 Em              
---------------|-----------------|-----------------|-----------------|
--3------------|-------3----3----|--2--------------|-----------------|
--4------------|-------2----2----|-------2---------|-----------------|
---------------|-----------------|------------2----|------------2----|
---------------|--0--------------|--0--------------|-------2---------|
---------------|-----------------|-----------------|--0--------------|
           and be-lieve  that I'm   meant to be       filled up with

                    Am7                                D             
------------0----|-----------------|-------3--------|--2------------|
-------0---------|-----------------|--1-------------|--3------------|
--0--------------|------------2----|----------------|--2------------|
-----------------|-------2---------|----------------|--0------------|
-----------------|--0--------------|----------------|---------------|
-----------------|-----------------|----------------|---------------|
more than just      questions

     End bridge
               
(2)-----------|
(3)-----------|
(2)-----------|
(0)-----------|
--------------|
--------------|

Tag:
  Em                                  Asus4           
-----------------|----------0------|-----------------|
-----------------|--0h-3-----------|--3--------------|
------------0----|-----------------|-------2---------|
-------2---------|-----------------|------------2----|
-----------------|-----------------|--0--------------|
--0--------------|-----------------|-----------------|
                    Cause I am not big enough


  A                 Asus4            A        
-----------------|-----------------|-----------------|
--2--------------|--3--------------|--2--------------|
-------2---------|-------2---------|-------2---------|
------------2----|------------2----|------------2----|
--0--------------|--0--------------|--0--------------|
-----------------|-----------------|-----------------|

Comments about this tab

No comments/corrections found. Add your own

Complimentary Christian Ringtones
Dadamobile and CGR have teamed up to bring your favorite Christian artists right to your phone. Sign up today and get 10 complementary ringtones!
Tab Country
Did you know CGR has a sister site w/ country guitar tabs? Well we do! Its called Tab Country. It has a great archive with a lot of country tabs.
Rockin Tabs
Are you looking for a site that has rock guitar tabs? Then Rockintabs.com is the place for you. It is a budding site with many rock guitar tabs. Submit your tab today.
Tab Gallery
Tab Gallery has a compilation of christian, rock, and country tabs all in one place. Come visit us.