Guitar Tabs
song title    band name

Join Us Today!

Don't strum alone...
be a part of the largest online Christian music community. Browse thousands of guitar tabs and chat w/ musicians like yourself.


It's Free!

This tab has not yet been rated for accuracy.Sorry, but you must be logged in to rate this tab.
Click here to log-in, or you can click here to register.
(Registration is free)

All songs owned by corresponding publishing company. If you make copies of any song on this website, be sure to report your usage to CCLI.
Author/Artist: Resurrection Band (Music: Roy Montroy; Lyrics: Glenn Kaiser)
Title: Silence screams
Album: Silence screams
Transcribed by: Tobias
Email: guitarhead@gmx.de (http://listen.to/guitarhead)

If anyone want's to have the solo, please mail me and I'll do my best to find it
out. Feel free to mail me for correction or just for fun. Listen to the record 
to get the right timing.


"Intro Riff":
      
       play 2 times                      play 2 times 
e-7-----7-----7---6-----6-----6---|-5-----5-----5---4-----4-----4---|---------
H---8-----8-----8---7-----7-----7-|---6-----6-----6---5-----5-----5-|---------
G-----9-----9---------9-----9-----|-----7-----7---------7-----7-----|---------
D---------------------------------|---------------------------------|---------
A---------------------------------|---------------------------------|---------
E---------------------------------|---------------------------------|---------
                                                                              
          play 2 times                       (mark for the bridge)
-10-------10-------10----9-------9-------9---|--------------------------------
----11-------11-------11---10------10------10|--------------------------------
-------12-------12------------12------12-----|--------------------------------
---------------------------------------------|--------------------------------
---------------------------------------------|--------------------------------
---------------------------------------------|--------------------------------
                                                                              
       play 2 times                 get a little bit slower      hold on 
-7-----7-----7---6-----6-----6---|---6-----6-----6-----6----|-----------------
---8-----8-----8---7-----7-----7-|-----7-----7-----7-----7--|-----------------
-----9-----9---------9-----9-----|-9-----9-----9-----9-----9|-----------------
---------------------------------|--------------------------|-----------------
---------------------------------|--------------------------|-----------------
---------------------------------|--------------------------|-0---------------
                                                                              
"Verse Riff":

------------------------------------------------------------------------------
------------------------------------------------------------------------------
-7/-9-----9\-7-----7/-9-----9\-7- break---------------------------------------
-7/-9-9-9-9\-7-7-7-7/-9-9-9-9\-7-(short---------------------------------------
-5/-7-7-7-7\-5-5-5-5/-7-7-7-7\-5--but-----------------------------------------
----------------------------------important)----------------------------------
      m m      m m      m m                                                         

"Chorus Riff":

------------------------------------------------------------------------------
------------------------------------------------------------------------------
------------------------------------7-----------------------------------------
-7/-9-----9\-7-----7/-9-----9\-7--5-7-2---------------------------------------
-7/-9-9-9-9\-7-7-7-7/-9-9-9-9\-7--5-5-2---------------------------------------
-5/-7-7-7-7\-5-5-5-5/-7-7-7-7\-5--3---0---------------------------------------
      m m      m m      m m                                                         


and here's the structure:

4 times "Verse Riff" (guitar2 enters after 2 times; playes the same)

Verse1:
/w "Verse Riff" 4 times
The hands are frozen solid on the face of saving grace
Where infiels and harlots choose a blackened burning place

Chorus:
/w "Chorus Riff" 2 times
Silence screams, the echoes roar
Silence screams, forever more

Verse2:
/w "Verse Riff" 8 times
With idiots and mannequins and charlatans in tow
Circus clowns and lunatics and ladies dressed for show
In a sullen field of chaos where dead men still have dreams
From pressure in these spaces silence screams

repeat Chorus 2 times

Solo (played over Verse2 and ends with G D E (shown in "Chorus Riff"))
maybe diffent chords, could be some sort of "Chorus Riff" too but it's
hardly hearable. Play some A - B after 4 or 6 times... sounds ok too.

Bridge:
/w Intro up to the mark (intro is played double time and all is repeated
4 times instead of 2)
ends again with G D E

You knew
You heard the truth
You understood
You knew what to do
To receive Him
Believe Him


Verse3:
/w "Verse Riff" 8 times
The folly in our passions
The prisoners of desire
The foolishness of bigots
tingled for the fire
In bitterness and exile
As brutal as it seems
In the coldest darkest spirit
Silence screams

Chorus:
/w "Chorus Riff" 4 times
Silence screams, the echoes roar
Silence screams, forever more
Silence screams, from shore to shore
Silence screams, forever more

hold E and play G D E (rest of "Chorus Riff")
second time is delayed and the chords are played double (listen to record)
forever more, forever more

Comments about this tab

No comments/corrections found. Add your own

Complimentary Christian Ringtones
Dadamobile and CGR have teamed up to bring your favorite Christian artists right to your phone. Sign up today and get 10 complementary ringtones!
Tab Country
Did you know CGR has a sister site w/ country guitar tabs? Well we do! Its called Tab Country. It has a great archive with a lot of country tabs.
Rockin Tabs
Are you looking for a site that has rock guitar tabs? Then Rockintabs.com is the place for you. It is a budding site with many rock guitar tabs. Submit your tab today.
Tab Gallery
Tab Gallery has a compilation of christian, rock, and country tabs all in one place. Come visit us.