Guitar Tabs
song title    band name

Join Us Today!

Don't strum alone...
be a part of the largest online Christian music community. Browse thousands of guitar tabs and chat w/ musicians like yourself.


It's Free!

Relient K - K Car

This tab has been rated a 3.50 out of 5 for accuracy. (2 votes)Sorry, but you must be logged in to rate this tab.
Click here to log-in, or you can click here to register.
(Registration is free)

All songs owned by corresponding publishing company. If you make copies of any song on this website, be sure to report your usage to CCLI.
Song: K Car
Band: Relient K
Album: Relient K
Copyright: 2000 5 Minutes Walk Records
Tabbed By: Matthew Price - mattprice@christianguitar.ws

Intro Rythm:
e----------------------------------------------
b----------------------------------------------
g-------------------------7-7-x-x-x-x----------
D-7-7-x-x-x-x-9-9-x-x-x-x-7-7-x-x-x-x--4-4-2-2-
A-7-7-x-x-x-x-9-9-x-x-x-x-5-5-x-x-x-x--4-4-2-2-
E-5-5-x-x-x-x-7-7-x-x-x-x--------------2-2-0-0-

Intro Lead:
e----------------------------------------------
b----------------------------------------------
g----------9-------------------6-6-6-6-4-4-4-4-
D-7-7-9p7----11-9-11--7-7-9p7------------------
A----------------------------------------------
E----------------------------------------------

Verses:
e----------------------------------------------
b----------------------------------------------
g-------------------------7-7-x-x-x-x----------
D-7-7-x-x-x-x-9-9-x-x-x-x-7-7-x-x-x-x--4-4-2-2-
A-7-7-x-x-x-x-9-9-x-x-x-x-5-5-x-x-x-x--4-4-2-2-
E-5-5-x-x-x-x-7-7-x-x-x-x--------------2-2-0-0-

Chorus:
e------------------------------------
b------------------------------------
g-------------------7-7-7-7--9-9-9-9-
D-7-7-7-7--9-9-9-9--7-7-7-7--9-9-9-9-
A-7-7-7-7--9-9-9-9--5-5-5-5--7-7-7-7-
E-5-5-5-5--7-7-7-7-------------------

Solo:
e-----------------------------------------------
b-----------------------------------------------
g-------------11-9------------------------------
D----------5-------11-12-12-12-12-12-12-11-9-11-repeat
A---7-5-7---------------------------------------
E-5---------------------------------------------

e---------8----8---8----8-----------8----10-10-10-10--12-12-12-12
b--10-10----10--10---10---10--10-10---10-------------------------
g----------------------------------------------------------------repeat
D----------------------------------------------------------------
A----------------------------------------------------------------
E----------------------------------------------------------------


The chords and lead were easy to figure out, but it was kind of hard
to figure out the solo with those fuzz effects.
If anyone needs any tabs done for them, let me know and iíll try to
figure them out.
matt price

Comments about this tab

RK911 - 2004-12-12

The solo is not even close!!!!!!!!!!!!!!!!!! look at the solo tab,that one is wrte


grim reaper - 2005-03-17

boo!!!!!!!!!!!!!!!!!!!!!!!!!!


keyblade - 2006-08-08

good tab but it would be easier to play the solo like this
e--5-5--8-5-8-5-8-5-8-5--5-5-8-5-10-10-10-10--12-12-12-12
b--------------------------------------------------------
g--------------------------------------------------------(repeat)
D--------------------------------------------------------
A--------------------------------------------------------
E--------------------------------------------------------

same notes different fingers, its harder to get to the 10 and 12 but it sounds soooo much better. there are also a few ways to make the actual song better but what you have is good enough.


mxpxrocks777 - 2007-09-21

for the solo, all you need to do is if you have a les paul, just put it on deep treble and this is the right way to play it:


e-----------------------------------------------------------
B-----------------------------------------------------------
G---11-9-------11-9-----11-9--------------------------------
D-7-----11-9-9-----11-12-----11--12-12-12-12-12-11-9-11-7---
A-----------------------------------------------------------
E-----------------------------------------------------------

e-----------------------------------------------------------
B-----------------------------------------------------------
G---11-9-------11-9-----11-9--------------------------------
D-7-----11-9-9-----11-12-----11--12-12-12-12-12-12-12-12----
A-----------------------------------------------------------
E-----------------------------------------------------------

e-----------------------------------------------------------
B-10-10-13-10-10-13-10-10-10-13-10-10-----------------------
G-----------------------------------------------------------
D-----------------------------------------------------------
A-----------------------------------------------------------
E-----------------------------------------------------------

e----------------10-10-10-12-12-12-12-----------------------
B-10-10-13-10-10--------------------------------------------
G-----------------------------------------------------------
D-----------------------------------------------------------
A-----------------------------------------------------------
E-----------------------------------------------------------

e-----------------------------------------------------------
B-10-10-13-10-10-13-10-10-10-13-10-10-10-10-10-13-10-10-----
G--------------------------------------------------------9\-
D-----------------------------------------------------------
A-----------------------------------------------------------
E-----------------------------------------------------------


Add a comment/correction

Complimentary Christian Ringtones
Dadamobile and CGR have teamed up to bring your favorite Christian artists right to your phone. Sign up today and get 10 complementary ringtones!
Tab Country
Did you know CGR has a sister site w/ country guitar tabs? Well we do! Its called Tab Country. It has a great archive with a lot of country tabs.
Rockin Tabs
Are you looking for a site that has rock guitar tabs? Then Rockintabs.com is the place for you. It is a budding site with many rock guitar tabs. Submit your tab today.
Tab Gallery
Tab Gallery has a compilation of christian, rock, and country tabs all in one place. Come visit us.