Guitar Tabs
song title    band name

Join Us Today!

Don't strum alone...
be a part of the largest online Christian music community. Browse thousands of guitar tabs and chat w/ musicians like yourself.


It's Free!

This tab has not yet been rated for accuracy.Sorry, but you must be logged in to rate this tab.
Click here to log-in, or you can click here to register.
(Registration is free)

All songs owned by corresponding publishing company. If you make copies of any song on this website, be sure to report your usage to CCLI.
(CD:  Reality Check                   )
(SoNG:  Losing Myself                 )
(TaBBeD BY:  MaTT ATLaS               )
(E-MaiL:  MaTLaST@aoL.CoM             )
(CoPYRiGHT:  1997 Star Song Records   )

NOTE:  This song has a bass guitar in the verse part of the song and an
electric guitar in the chorus part.  If you can get the two lines in the
chorus, you will be able to play the whole song.  Here is about how the
chorus goes.  Work with it and update it if you can.  These are all
rock/power chords.  Also, the spacing isnt perfect, just keep playing it
and you will see when to strum it.  The solo will help if you just need
to see how it sounds.

************************************CHORUS*****************************
----------------------------------------------------------------------
----------------------------------------------------------------------
----------------------------------------------------------------------
---5-----5------5--7--7------7--5--5------5---6---6---4---4-----------
---5-----5------5--7--7------7--5--5------5---6---6---4---4-----------
---3-----3------3--5--5------5--3--3------3---4---4---2---2-----------

----------------------------------------------------------------------
----------------------------------------------------------------------
----------------------------------------------------------------------
---5-----5------5--7--7------7--5--5------5---5---5---5---5-----------
---5-----5------5--7--7------7--5--5------5---5---5---5---5-----------
---3-----3------3--5--5------5--3--3------3---3---3---3---3-----------

----------------------------------------------------------------------
----------------------------------------------------------------------
----------------------------------------------------------------------
---5-----5------5--7--7------7--5--5------5---6---6---4---4-----------
---5-----5------5--7--7------7--5--5------5---6---6---4---4-----------
---3-----3------3--5--5------5--3--3------3---4---4---2---2-----------

----------------------------------------------------------------------
----------------------------------------------------------------------
----------------------------------------------------------------------
---5-----5------5--7--7------7--5--5------5---5---5---5---5-----------
---5-----5------5--7--7------7--5--5------5---5---5---5---5-----------
---3-----3------3--5--5------5--3--3------3---3---3---3---3-----------

**the guitar solo is the first two lines, and the second one is the same
thing....the chorus has other words, but it has the same guitar
backround.....the chords above the words arnt all in the rigth place,
but they should give you an idea.  This is my first time tabbing a song,
so please let me know about any comments at MaTLaST@aol.com....tell me
how i did....and update any changes....thanx...njoy
<<<<<<<<<<<<<<<<<<<<<<<<<<<<<<<<<<<<<>>>>>>>>>>>>>>>>>>>>>>>>>>>>>>>>>>>>>

post it asap....thanx...matt

Comments about this tab

No comments/corrections found. Add your own

Complimentary Christian Ringtones
Dadamobile and CGR have teamed up to bring your favorite Christian artists right to your phone. Sign up today and get 10 complementary ringtones!
Tab Country
Did you know CGR has a sister site w/ country guitar tabs? Well we do! Its called Tab Country. It has a great archive with a lot of country tabs.
Rockin Tabs
Are you looking for a site that has rock guitar tabs? Then Rockintabs.com is the place for you. It is a budding site with many rock guitar tabs. Submit your tab today.
Tab Gallery
Tab Gallery has a compilation of christian, rock, and country tabs all in one place. Come visit us.