Guitar Tabs
song title    band name

Join Us Today!

Don't strum alone...
be a part of the largest online Christian music community. Browse thousands of guitar tabs and chat w/ musicians like yourself.


It's Free!

Bleach - Perfect Family

This tab has not yet been rated for accuracy.Sorry, but you must be logged in to rate this tab.
Click here to log-in, or you can click here to register.
(Registration is free)

All songs owned by corresponding publishing company. If you make copies of any song on this website, be sure to report your usage to CCLI.
Song Title: Perfect Family
Artist: Bleach
From The CD: Space
Tabbed & Arranged By: RCRogers
Slightly adjusted by Matt Atlas: MrGuitar@udel.edu

  Notation Used:
       X    =  rake string with pick, using
               fret hand to mute
                (creates a percussive sound)
    / or \  =  slide up or down into note
     (11)   =  ghost note; not struck
               but is sounded
                 i.e.  /(13)  pick then slide into 13
                              but don't pick again
                              after sliding into
                              the note
                NOTE:
                      /13 means to pick, slide, then
                      pick the note again after sliding
                      into it
Intro
 (guitar 1)
E-----------
B-----------
G-----------
D----------- (played 4 times before guitar 2 enters; 
A--7-7-9-7--  then played 8 more times)
E-----------
 (guitar 2)
E-------------------------------------------------------------
B-------------------------------------------------------------
G--9--9--x-x--9--9--------------------------------------------
D--9--9--x-x--9--9--6--6--7--7--x-x--7--7--9--9--11--11--x-x--
A--7--7--x-x--7--7--6--6--7--7--x-x--7--7--9--9--11--11--x-x--
E--7--7-------7--7--4--4--5--5--x-x--5--5--7--7---9---9--x-x--
E---------------------------------------
B---------------------------------------
G---------------------------------------
D--11--11--9--9--7--7--x-x--7--7--9--9--
A--11--11--9--9--7--7--x-x--7--7--9--9--
E---9---9--7--7--5--5--x-x--5--5--7--7--
Verse 1
 (guitar 2)
E-------------------------------------------------------------
B-------------------------------------------------------------
G--9--9-------9--9--------------------------------------------
D--9--9-------9--9--6--6--7--7-------7--7--9--9--11--11-------
A--7--7-------7--7--6--6--7--7-------7--7--9--9--11--11-------
E--7--7-------7--7--4--4--5--5-------5--5--7--7---9---9-------
E---------------------------------------
B---------------------------------------
G---------------------------------------
D--11--11--9--9--7--7-------7--7--9--9-- (played 2 times)
A--11--11--9--9--7--7-------7--7--9--9--
E---9---9--7--7--5--5-------5--5--7--7--
Interlude
 (guitar 1)
E-----------
B-----------
G-----------
D----------- (played 4 times before Verse 2)
A--7-7-9-7--  
E-----------
Verse 2
 (guitars 1 and 2)
E-------------------------------------------------------------
B-------------------------------------------------------------
G--9--9-------9--9--------------------------------------------
D--9--9-------9--9--6--6--7--7-------7--7--9--9--11--11-------
A--7--7-------7--7--6--6--7--7-------7--7--9--9--11--11-------
E--7--7-------7--7--4--4--5--5-------5--5--7--7---9---9-------
E---------------------------------------
B---------------------------------------
G---------------------------------------
D--11--11--9--9--7--7-------7--7--9--9-- (played 2 times)
A--11--11--9--9--7--7-------7--7--9--9--
E---9---9--7--7--5--5-------5--5--7--7--
Chorus
 (guitar 1 or 2 or both--played 4 times)
E-------------------------------------------------------
B-------------------------------------------------------
G--9--9--x----------------------------------------------
D--9--9--x--6/(7)--7--7--7/(11)\9--9--9--9--7--7--9--9-- 
A--7--7--x--6/(7)--7--7--7/(11)\9--9--9--9--7--7--9--9--
E--7--7-----4/(5)--5--5--5/( 9)\7--7--7--7--5--5--7--7--
Solo
 (Lead - guitar 1)
E------------------------------------------------------
B------------------------------------------------------
G--(played 8 times)------------------------------------
D------------------------13---14--14-13--14--14-13--14--
A------7-7-9-7-----------------------------------------
E------------------------------------------------------
E-------------------------------------------------------------
B-------------------------------------------------------------
G-------------------------------------------------------------
D--14-11--9--11--11/(13)--14--14-13--14--14-13--14--14-11--9--
A-------------------------------------------------------------
E-------------------------------------------------------------
E-------------------------------------------------------------
B-------------------------------------------------------------
G-------------------------------------------------------------
D--11-11/(13)-13-14-13-11--9--11/(13)-13-14-13-11--9--11/(13)-
A-------------------------------------------------------------
E-------------------------------------------------------------
E-----------------------------------
B-----------------------------------
G-----------------------------------
D--13-14-13-11--9--7-7-7-7-7-7-7-7--
A-----------------------------------
E-----------------------------------
 (Rhythm - guitar 2)
E--------------------------------------------------------------
B--------------------------------------------------------------
G--9--9--9--9--9--9--------------------------------------------
D--9--9--9--9--9--9--6--6--7--7--7--7--7--7--9--9--11--11--11--
A--7--7--7--7--7--7--6--6--7--7--7--7--7--7--9--9--11--11--11--
E--7--7--7--7--7--7--4--4--5--5--5--5--5--5--7--7---9---9---9--
E--------------------------------------------
B--------------------------------------------
G--------------------------------------------
D--11--11--11--9--9--7--7--7--7--7--7--9--9-- (played 3 times)
A--11--11--11--9--9--7--7--7--7--7--7--9--9--
E---9---9---9--7--7--5--5--5--5--5--5--7--7--
E--------------------------------------------------------------
B--------------------------------------------------------------
G--9--9--9--9--9--9--------------------------------------------
D--9--9--9--9--9--9--6--6--7--7--7--7--7--7--9--9--11--11--11--
A--7--7--7--7--7--7--6--6--7--7--7--7--7--7--9--9--11--11--11--
E--7--7--7--7--7--7--4--4--5--5--5--5--5--5--7--7---9---9---9--
E--------------------------------------------
B--------------------------------------------
G--------------------------------------------
D--11--11--11--9--9--7--7--7--7--7--7--7--7-- 
A--11--11--11--9--9--7--7--7--7--7--7--7--7--
E---9---9---9--7--7--5--5--5--5--5--5--5--5--
Chorus
Verse 3 (Outro)
 (Riff 1 - guitar 2)
E-------------------------------------------------------------
B-------------------------------------------------------------
G--9--9-------9--9--------------------------------------------
D--9--9-------9--9--6--6--7--7-------7--7--9--9--11--11-------
A--7--7-------7--7--6--6--7--7-------7--7--9--9--11--11-------
E--7--7-------7--7--4--4--5--5-------5--5--7--7---9---9-------
E---------------------------------------
B---------------------------------------
G---------------------------------------
D--11--11--9--9--7--7-------7--7--9--9-- 
A--11--11--9--9--7--7-------7--7--9--9--
E---9---9--7--7--5--5-------5--5--7--7--
 (Riff 2 - guitar 2)
E-------------------------------------------------------------
B-------------------------------------------------------------
G-------------------------------------------------------------
D--9--9-------9--9--------------------------------------------
A--7--7--x-x--7--7--6--6--7--7--x-x--7--7--9--9--11--11--x-x--
E--------x-x--------4--4--5--5--x-x--5--5--7--7---9---9--x-x--
E---------------------------------------
B---------------------------------------
G---------------------------------------
D---------------------------------------
A--11--11--9--9--7--7--x-x--7--7--9--9--
E---9---9--7--7--5--5--x-x--5--5--7--7--
E-------------------------------------------------------------
B-------------------------------------------------------------
G-------------------------------------------------------------
D--9--9-------9--9--------------------------------------------
A--7--7--x-x--7--7--6--6--7--7--x-x--7--7--9--9--11--11--x-x--
E--------x-x--------4--4--5--5--x-x--5--5--7--7---9---9--x-x--
E------------------------------------------
B------------------------------------------
G------------------------------------------
D------------------------------------------
A--11--11--9--9--7--7--x-x--7--7--9--9--7--
E---9---9--7--7--5--5--x-x--5--5--7--7-----

thats it.  my tabbing makes it easier, but its right cause i watched them in
concert and this iz how they play it.  enjoy.....mrguitar

Comments about this tab

No comments/corrections found. Add your own

Complimentary Christian Ringtones
Dadamobile and CGR have teamed up to bring your favorite Christian artists right to your phone. Sign up today and get 10 complementary ringtones!
Tab Country
Did you know CGR has a sister site w/ country guitar tabs? Well we do! Its called Tab Country. It has a great archive with a lot of country tabs.
Rockin Tabs
Are you looking for a site that has rock guitar tabs? Then Rockintabs.com is the place for you. It is a budding site with many rock guitar tabs. Submit your tab today.
Tab Gallery
Tab Gallery has a compilation of christian, rock, and country tabs all in one place. Come visit us.