Guitar Tabs
song title    band name

Join Us Today!

Don't strum alone...
be a part of the largest online Christian music community. Browse thousands of guitar tabs and chat w/ musicians like yourself.


It's Free!

This tab has been rated a 5.00 out of 5 for accuracy. (1 vote)Sorry, but you must be logged in to rate this tab.
Click here to log-in, or you can click here to register.
(Registration is free)

All songs owned by corresponding publishing company. If you make copies of any song on this website, be sure to report your usage to CCLI.
Artist:Broken Cedars
Song Title:Station
Tabbed By: Matt Shedletsky

Chords Used:
B5  F#add2  E5  F#5  Eadd2  Badd2  G5  Gmaj  F#
e-------------------------------------------------
b-------------------------------------------------
g--------------9--------------6----------11----11-
d-9---11-------9---4---11-----4-----12---12----11-
a-9----9-------7---4----9-----2-----12---10-----9-
e-7----6-----------2----7-----------10------------

Intro: B5,F#add2,E5,F#5 x2

B5       F#add2      E5
F#5      B5          F#add2
E5       F#5

Chorus:
Eadd2    Badd2       G5       F#
Eadd2    Badd2       G5       F#

Riff1
e----------------------------------------------------------------------
b----------------------------------------------------------------------
g-----9h8-------9-9h8-----------4h3------4-4h3----------9h8------9h8---
d---------9-----------9-------------4----------4------------9--------9-
a-7777--------77-----------2222-------22-----------7777-------77-------
e----------------------------------------------------------------------

------------------------------
------------------------------
-------11h9--------11-11h9----
------------11-------------11-
-9999-----------99------------
------------------------------  X2

B5         F#add2      E5
F#5        B5 
F#add2     E5          F#5

Comments about this tab

stratocasterman - 2004-08-21

sweet i love brocken ceders this is my favorite song
could some one pleze taab it 4 bass
instant messege me if u can my sn is stratocasterman0


Add a comment/correction

Complimentary Christian Ringtones
Dadamobile and CGR have teamed up to bring your favorite Christian artists right to your phone. Sign up today and get 10 complementary ringtones!
Tab Country
Did you know CGR has a sister site w/ country guitar tabs? Well we do! Its called Tab Country. It has a great archive with a lot of country tabs.
Rockin Tabs
Are you looking for a site that has rock guitar tabs? Then Rockintabs.com is the place for you. It is a budding site with many rock guitar tabs. Submit your tab today.
Tab Gallery
Tab Gallery has a compilation of christian, rock, and country tabs all in one place. Come visit us.