Guitar Tabs
song title    band name

Join Us Today!

Don't strum alone...
be a part of the largest online Christian music community. Browse thousands of guitar tabs and chat w/ musicians like yourself.


It's Free!

Bleach - Land Of the Lost

This tab has not yet been rated for accuracy.Sorry, but you must be logged in to rate this tab.
Click here to log-in, or you can click here to register.
(Registration is free)

All songs owned by corresponding publishing company. If you make copies of any song on this website, be sure to report your usage to CCLI.
Artist: Bleach
Song : Land of the Lost
Album: Static
Tabbed by: Marshall Bridwell (iammental2@hotmail.com)  

This is really my first tab job......so if there are any questions or
suggestions about the tab here just email me and I will be happy to reply,
but I am pretty sure this is correct.


LAND OF THE LOST....by BLEACH.        Standard Tuning....E-A-D-G-B-e


INTRO/CHORUS: 4x
D-----5----7---2---5---------------------5--7--5------
A-----5----5---2---3-------end on>>------5--5--3------
E-----3----x---0---x---------------------3--x---------


VERSE: 2x    
D-----5----4---5-----------4--5--------------------------------5---------
A-----5----2---3---4---5---2--3---4-4--5------------end on>>---3---------
E-----3------------2---3----------2-2--3---------------------------------
(NEXT 4X THROUGH PALM MUTE AND PLAY A BIT QUICKER.)

PRE CHORUS:2x
D-----9>----5>-------5--------5-------------------------5>---------------7>-  
A-----7>----3>---5---3---5----3----on second time after 3>---slid up to--5>-     
E----------------3-------3--------------------------------------------------

SOLO:
e-----------------------------------444p5---444p5---444p5---444p5--sld.5 to 1-
G----777p9---777p9---777p9---999p10-------------------------------------------

END SONG ON INTRO 1step up.  (Same as intro but beginning on 5th fret.)

Comments about this tab

No comments/corrections found. Add your own

Complimentary Christian Ringtones
Dadamobile and CGR have teamed up to bring your favorite Christian artists right to your phone. Sign up today and get 10 complementary ringtones!
Tab Country
Did you know CGR has a sister site w/ country guitar tabs? Well we do! Its called Tab Country. It has a great archive with a lot of country tabs.
Rockin Tabs
Are you looking for a site that has rock guitar tabs? Then Rockintabs.com is the place for you. It is a budding site with many rock guitar tabs. Submit your tab today.
Tab Gallery
Tab Gallery has a compilation of christian, rock, and country tabs all in one place. Come visit us.