Guitar Tabs
song title    band name

Join Us Today!

Don't strum alone...
be a part of the largest online Christian music community. Browse thousands of guitar tabs and chat w/ musicians like yourself.


It's Free!

Project 86 - Stein's Theme

This tab has not yet been rated for accuracy.Sorry, but you must be logged in to rate this tab.
Click here to log-in, or you can click here to register.
(Registration is free)

All songs owned by corresponding publishing company. If you make copies of any song on this website, be sure to report your usage to CCLI.
Project 86
Stein's Theme
Drawing Black Lines
Copyright 2000 BEC Recordings

Drop D Tuning (I decided to keep the 'E' string represented by an 'E',
because two 'D's can get confusing)

Intro

E 0-0-0-0-0-
A 6-6-6-6-6-
D 0-0-0-0-0-

Verse (4x)

E 0-0--0-0-0--0-0-0--0-0-0-0-0-
A 0-0--0-0-0--0-0-0--0-0-0-0-0-
D -----------------------------

E ------------------------------
A ------------------------------
D 7-0-0-6-0-0-1-0-0-2-0-0-3-0-2-



(Note: on the last repetition, hold on D-3 and bend a teeny bit before
going into chorus)

Chorus (2x)

E 6--5--0--0-0-0----6--5--0--0-0-0-------
A 6--5--0--0-0-0-5--6--5--0--0-0-0-5~6~5-
D ------------------6-----------------------------------
G ------------------7----------------------7~8~7-


Verse

Chorus (4x)

Bridge Part 1 (8x)

E ------0-*--------0-*----6---------0-*------0-*……
A 5^0-0-*5^0-0-*5^0-6-5^0-0-*5^0-0-* 5-5-5-5-
D 7-7------7-7------7-7----7-7-----7-7------7-7-7-7-

(Note: In parenthesis is the palm-muted thing in that's kind of in the
background. There also an on-going harmonic chord in the background, I
think it's on the A string, 5th fret… I could be wrong though, it's hard
to tell.)

Bridge Part 2

Basically the same as part 1, but slower and without the silencing (*)

Verse

The last is part is just this

E ---------------------------------------------------------------------
A ---------------------------------------------------------------------
D 7-0-0-6-0-0-1-0-0-2-0-0-3-0-2-0-7-0-0-6-0-0-1-0----------------------

E 5-5-5-5*
A 5-5-5-5*
D --------


And then it busts back into Bridge Part 2

Well, that's the whole enchilada, if you have any questions or comments,
send 'em to: 
Jamesacre1@aol.com

Comments about this tab

SafeHaven - 2004-12-29

The bridge is right, but something went wrong in the tabbing:

E -----0*------0*-------6-------0*------0*---------
A 5^0--0*-5^0--0*--5^0--6--5^0--0*-5^0--0*--(5-5-5-5)-
D 7-7-----7-7------7-7-----7-7-----7-7------(7-7-7-7)-

And I don't think the part in parenthesis is on the CD.

BTW: ^ = pull off * = silence the string


Add a comment/correction

Complimentary Christian Ringtones
Dadamobile and CGR have teamed up to bring your favorite Christian artists right to your phone. Sign up today and get 10 complementary ringtones!
Tab Country
Did you know CGR has a sister site w/ country guitar tabs? Well we do! Its called Tab Country. It has a great archive with a lot of country tabs.
Rockin Tabs
Are you looking for a site that has rock guitar tabs? Then Rockintabs.com is the place for you. It is a budding site with many rock guitar tabs. Submit your tab today.
Tab Gallery
Tab Gallery has a compilation of christian, rock, and country tabs all in one place. Come visit us.