Guitar Tabs
song title    band name

Join Us Today!

Don't strum alone...
be a part of the largest online Christian music community. Browse thousands of guitar tabs and chat w/ musicians like yourself.


It's Free!

Project 86 - One Armed Man

This tab has been rated a 0.00 out of 5 for accuracy. (1 vote)Sorry, but you must be logged in to rate this tab.
Click here to log-in, or you can click here to register.
(Registration is free)

All songs owned by corresponding publishing company. If you make copies of any song on this website, be sure to report your usage to CCLI.
Song: One Armed Man
Group: Project 86
Copyright:  BEC 1999
Tabbed By: J.P. subcon_g@yahoo.com

Drop D tuning.
Intro:
D|-----------------------------
A|5-5-5-5--8--10--5-5-5-5---8-3
D|-----------------------------
G|7-7-7-7--10-12--7-7-7-7--10-5
B|-----------------------------
E|-----------------------------
Verse: same as intro
Chorus
D|---------------12-10-12-10-12-10-12
A|5-3-3-5-3-3----12-10-12-10-12-10-12
D|-----------------------------------
G|7-5-5-7-5-5------------------------
B|-----------------------------------
E|-----------------------------------

Bridge 1:
D|0-0-0-3-3---*-*-*-0-0-3-3------0
A|0-0-0-3-3---*-*-*-0-0-3-3--3-5-0
D|--------------------------------
G|---------------------------5-7--
B|--------------------------------
E|--------------------------------

Bridge 2:
D|0-0-0-3-5-6-5
A|0-0-0-3-5-6-5
D|-------------
G|-------------
B|-------------
E|-------------

Bridge 3:
D|----0-0-0-3-5-6-5
A|5-5-0-0-0-3-5-6-5
D|-----------------
G|7-7--------------
B|-----------------
E|-----------------

Order:
Play the intro/verse x6
Chorus x4
intro/verse x2
chorus x4
Bridge 1: x2
Bridge 2: x2
play d5 c5 g5 g5 g5 f5 d5 twice
bridge 3 : i think four times
chorus: x4
Bridge 3: play until end of song.

Comments about this tab

bobsummers35 - 2004-07-05

dude, PLEASE learn how to tab before you put a tab online


Add a comment/correction

Complimentary Christian Ringtones
Dadamobile and CGR have teamed up to bring your favorite Christian artists right to your phone. Sign up today and get 10 complementary ringtones!
Tab Country
Did you know CGR has a sister site w/ country guitar tabs? Well we do! Its called Tab Country. It has a great archive with a lot of country tabs.
Rockin Tabs
Are you looking for a site that has rock guitar tabs? Then Rockintabs.com is the place for you. It is a budding site with many rock guitar tabs. Submit your tab today.
Tab Gallery
Tab Gallery has a compilation of christian, rock, and country tabs all in one place. Come visit us.