Guitar Tabs
song title    band name

Join Us Today!

Don't strum alone...
be a part of the largest online Christian music community. Browse thousands of guitar tabs and chat w/ musicians like yourself.


It's Free!

This tab has not yet been rated for accuracy.Sorry, but you must be logged in to rate this tab.
Click here to log-in, or you can click here to register.
(Registration is free)

All songs owned by corresponding publishing company. If you make copies of any song on this website, be sure to report your usage to CCLI.
Pure
by The Prayer Chain
Album: Shawl
(c) 1993 Burning Bus Music BMI
Submitted by: Cody Pitre, cpitre@intop.net
more tab at: http://www.intop.net/~cpitre/index.html
------------------------------------------

Intro:(Use wah pedal) each chord gets 4 beats
 F#    C#    B
e----|-----|-----|Play this 
b----|-----|-----|progression
g-3--|-6---|-4---|4 times
d-4--|-6---|-4---|
A----|-----|-----|
E----|-----|-----|


  F#(*no wah pedal*)
e-2-----------------------------------------------------------|
b-2-----------------------------------------------------------|
g-3------------6-----------------------------------3-4-6-3----|
d-4----------/4------------------4------------------------4---|
A--------------------------------4----------------------------|
E--------------------------------2----------------------------|
   Gold digger   Do you love her?  do you love her?
                          
e--------------------------2---------------------------------------2-x-2-x-|
b---------------------------2--------------------------------------2-x-2-x-|
g----------------------------3-------------------------------------3-x-3-x-|
d-----------------------------4------------------------------------4-x-4-x-|
A--------------------------gliss.------------------------------------------|
E--------------------------------------------------------------------------|
Squints, over his shoulders     "River sand grinds a man to stone."

Chorus:
       F#
Gold digger (Sun fall down, Stand in sand)
         B
do you love her? (Search for gold, Sun fall down)
       F#              B              E
Gold digger (Hold her hand til we're old)

Intro progression (2 times)

F#          C#     B  F#
Her, water falls down
          C# B
Came in pure
F#        C#  B         F#  C# B
Fell in love with the stone

Bridge (Chords)listen for the rhythm:

G F#
B A
G F#
B A
G F# B A E

REPEAT CHORUS

Comments about this tab

No comments/corrections found. Add your own

Complimentary Christian Ringtones
Dadamobile and CGR have teamed up to bring your favorite Christian artists right to your phone. Sign up today and get 10 complementary ringtones!
Tab Country
Did you know CGR has a sister site w/ country guitar tabs? Well we do! Its called Tab Country. It has a great archive with a lot of country tabs.
Rockin Tabs
Are you looking for a site that has rock guitar tabs? Then Rockintabs.com is the place for you. It is a budding site with many rock guitar tabs. Submit your tab today.
Tab Gallery
Tab Gallery has a compilation of christian, rock, and country tabs all in one place. Come visit us.