Guitar Tabs
song title    band name

Join Us Today!

Don't strum alone...
be a part of the largest online Christian music community. Browse thousands of guitar tabs and chat w/ musicians like yourself.


It's Free!

This tab has not yet been rated for accuracy.Sorry, but you must be logged in to rate this tab.
Click here to log-in, or you can click here to register.
(Registration is free)

All songs owned by corresponding publishing company. If you make copies of any song on this website, be sure to report your usage to CCLI.
Poor Old Lu:A Picture of the 8th Wonder
Copyright 199? Alarma Records
tabbed by Collin Derrick
e-mail:ejd@china2.ygi.edu.cn
[what if uncle ben had lived?]

tuning:down a whole step (Eb Bb Gb Db Ab Eb)
This song has little variations on the chords so i'll add that in as well
Chords:
   Em  C   D   G
E|-0 - 0 - 2 - 3
B|-0 - 1 - 3 - 0
G|-0 - 0 - 2 - 0
D|-2 - 2 - 0 - 0
A|-2 - 3 - X - 2
E|-0 - X - X - 3
Intro:
	D
E|---2--2--2-2-2-2--2-2-2--2--2--2-2-2-2--2-2-2-|
B|---0--0--0-0-3-3--3-3-0--0--0--0-0-3-3--3-3-0-|
G|---2--2--2-2-2-2--2-2-2--2--2--2-2-2-2--2-2-2-|
D|---0--0--0-0-0-0--0-0-0--0--0--0-0-0-0--0-0-0-|
A|----------------------------------------------|
E|----------------------------------------------|
	C
E|---0--0--0-0-0-0--0-0-0--0--0--0-0-0-0--0-0-0-|
B|---0--0--0-0-1-1--1-1-0--0--0--0-0-1-1--1-1-0-|
G|---0--0--0-0-0-0--0-0-0--0--0--0-0-0-0--0-0-0-|
D|---2--2--2-2-2-2--2-2-2--2--2--2-2-2-2--2-2-2-|
A|---3--3--3-3-3-3--3-3-3--3--3--3-3-3-3--3-3-3-|
E|----------------------------------------------|

Verse:(repeat)
		E|---2--2--2-2-2-2--2-2-2--2--2--2-2-2-2--2-2-2-|
		B|---0--0--0-0-3-3--3-3-0--0--0--0-0-3-3--3-3-0-|
		G|---2--2--2-2-2-2--2-2-2--2--2--2-2-2-2--2-2-2-|
		D|---0--0--0-0-0-0--0-0-0--0--0--0-0-0-0--0-0-0-|
		A|----------------------------------------------|
		E|----------------------------------------------|
    falling down the stairs

		E|---0--0--0-0-0-0--0-0-0--0--0--0-0-0-0--0-0-0-|
		B|---0--0--0-0-1-1--1-1-0--0--0--0-0-1-1--1-1-0-|
		G|---0--0--0-0-0-0--0-0-0--0--0--0-0-0-0--0-0-0-|
		D|---2--2--2-2-2-2--2-2-2--2--2--2-2-2-2--2-2-2-|
		A|---3--3--3-3-3-3--3-3-3--3--3--3-3-3-3--3-3-3-|
		E|----------------------------------------------|
      climb into the sea

      the world is on it's hands
      then it's on it's feet
      touch the silent man
      who cares where he goes
      stand high above his back
      like the ground beneath your toes

Chorus:
     Em                          D       C     G
       the breeze is to much for me - anymore
     Em                           D
       and if I push the blade in deep
                               C            G
       will in break inside of me in me, in me...

Guitar thingy:(power chords)
	E G Gb F
		 will I spit on him again
	E G Gb F
		 and turn myself away
	E G Gb F
		what more will it take
	G A B
                         
please write me and tell me if you have any disagreements on my tabs

Comments about this tab

No comments/corrections found. Add your own

Complimentary Christian Ringtones
Dadamobile and CGR have teamed up to bring your favorite Christian artists right to your phone. Sign up today and get 10 complementary ringtones!
Tab Country
Did you know CGR has a sister site w/ country guitar tabs? Well we do! Its called Tab Country. It has a great archive with a lot of country tabs.
Rockin Tabs
Are you looking for a site that has rock guitar tabs? Then Rockintabs.com is the place for you. It is a budding site with many rock guitar tabs. Submit your tab today.
Tab Gallery
Tab Gallery has a compilation of christian, rock, and country tabs all in one place. Come visit us.