Guitar Tabs
song title    band name

Join Us Today!

Don't strum alone...
be a part of the largest online Christian music community. Browse thousands of guitar tabs and chat w/ musicians like yourself.


It's Free!

This tab has not yet been rated for accuracy.Sorry, but you must be logged in to rate this tab.
Click here to log-in, or you can click here to register.
(Registration is free)

All songs owned by corresponding publishing company. If you make copies of any song on this website, be sure to report your usage to CCLI.
Title: Thoughtless
Artist: Poor Old Lu
Album: Sin
Copyright 1994 Carlotta Publishing / Poor Old Tunes (BMI)
Tabbed by Kirk Bozeman (kirkbozeman@hotmail.com)

E flat tuning (all strings down a half step)

INTRO:
|--0-0-0-0-0-0-0-0-0-0-0-0--|
|--3-0-2-3-0-2-3-0-2-3-0-2--|
|---------------------------|
|---------------------------|
|---------------------------|
|---------------------------|

VERSE 1:
      C         Em    Dsus      Dsus/C#
|-----0-------------------0---------0------|
|-----1-1h3-1-0-------------3---------3----|
|-----0-0---0-0---------2-----2---2-----2--|
|-----2---------2-----0--------------------| (3x)
|-----3---------2---------------4----------|  
|---------------0--------------------------|
In my money I was at home
To the beggar I was so cold
In my pockets all that I could hold

     C         Em    Dsus            (pickup to REFRAIN)
|----0-------------------0-----0-----|---------|
|----1-1h3-1-0-------------3-----3---|---------|
|----0-0---0-0---------2-----2-----2-|---------|
|----2---------2-----0---------------|----4----|
|----3---------2---------------------|--4---5--|  
|--------------0---------------------|---------|
As I left here, this was all I was told:

REFRAIN:
   Bm                                  G
|--x--x-x-x-x-x------x--x-x-x-x-x-------------------------------|
|--3--3-3-3-3-3------3--3-3-3-3-3-------------------------------|
|--4--4-4-4-4-4------4--4-4-4-4-4-------------------------------|
|--4--4-4-4-4-4------4--4-4-4-4-4------0-0---0-0---0-0---0-0----|
|--2--2-2-2-2-2--0-2-2--2-2-2-2-2--0-2-x-x-0-x-x-0-x-x-0-x-x-0--|
|--------------------------------------3-2-0-3-2-0-3-2-0-3-2-0--|
      
Well, I get a dime for all of my good / A nickel for all that I could

   Bm                                  G
|--x--x-x-x-x-x------x--x-x-x-x-x-------------------------------|
|--3--3-3-3-3-3------3--3-3-3-3-3-------------------------------|
|--4--4-4-4-4-4------4--4-4-4-4-4-------------------------------|
|--4--4-4-4-4-4------4--4-4-4-4-4------0-0---0-0---0-0---0-0----|
|--2--2-2-2-2-2--0-2-2--2-2-2-2-2--0-2-x-x-0-x-x-0-x-x-0-x-x-0--|
|--------------------------------------3-2-0-3-2-0-3-2-0-3-2-0--|
And a quarter for all that I said  I would

               A     A    A4  A  As A
|--------------0-----0----0---0--0--0--|
|--------------2-----2----3---2--0--2--|
|--------------2-----2----2---2--2--2--|
|--------------2-----2----2---2--2--2--|
|--------------0-----0----0---0--0--0--|
|--------------0-----0----0---0--0--0--|
And I was left poor poor poor oh my how (poor...)

VERSE 2:
      C         Em    Dsus      Dsus/C#
|-----0-------------------0---------0------|
|-----1-1h3-1-0-------------3---------3----|
|-----0-0---0-0---------2-----2---2-----2--|
|-----2---------2-----0--------------------| (3x)
|-----3---------2---------------4----------|  
|---------------0--------------------------|
     (poor...)
As a thinker, I was so loud
In my wisdom, I was profound

     C         Em    Dsus      
|----0-------------------0-----0-------------|
|----1-1h3-1-0-------------3-----3-----------|
|----0-0---0-0---------2-----2-----2---------|
|----2---------2-----0------------------4----|
|----3---------2----------------------4---5--|  
|--------------0-----------------------------|
As I left here, this was the sound:

REPEAT REFRAIN

SOLO (Let treble ring):
|--0-0-0-0-0-0-0-0-0-0-0-0-0--0--0--0--0--0--0--0--0--0----|
|--0-0-0-0-0-0-0-0-0-0-0-0-0--0--0--0--0--0--0--0--0--0----|
|--7-4-6-7-4-6-7-4-6-7-4-6-10-10^10^10^10^10^10^10^10^10^--|
|----------------------------------------------------------|
|----------------------------------------------------------|
|----------------------------------------------------------|

|--0-0-0-0-0-0-0-0-0-0-0-0-0--0--0--0--0--0--0-----0-----0-----0-|
|--0-0-0-0-0-0-0-0-0-0-0-0-0--0--0--0--0--0--0-----0-----0-----0-|
|--7-4-6-7-4-6-7-4-6-7-4-6-14-14^14^14^14^14^14h16-14h16-14h16-14|
|----------------------------------------------------------------|
|----------------------------------------------------------------|
|----------------------------------------------------------------|

|-0---0---0---0--0--0--0--0-----0-----0------|
|-0---0---0---0--0--0--0--0--3----3---3------|
|-14--12--11--9--9--7--6--4--2------2-2------|
|-x---x---x---x--x--x--x--x--0--------0------|
|-12--10--9---7--7--5--4--2--0--------0--4^--|
|-0---0---0---0--0--0--0--0--x---------------|

VERSE 3:
        C       Em    Dsus      Dsus/C#
|-----0-------------------0---------0------|
|-----1-1h3-1-0-------------3---------3----|
|-----0-0---0-0---------2-----2---2-----2--|
|-----2---------2-----0--------------------| (4x)
|-----3---------2---------------4----------|  
|---------------0--------------------------|
(First 2x - no vocals)
By my own way, I felt very near
When it shook me, this was all I could hear...

Comments about this tab

No comments/corrections found. Add your own

Complimentary Christian Ringtones
Dadamobile and CGR have teamed up to bring your favorite Christian artists right to your phone. Sign up today and get 10 complementary ringtones!
Tab Country
Did you know CGR has a sister site w/ country guitar tabs? Well we do! Its called Tab Country. It has a great archive with a lot of country tabs.
Rockin Tabs
Are you looking for a site that has rock guitar tabs? Then Rockintabs.com is the place for you. It is a budding site with many rock guitar tabs. Submit your tab today.
Tab Gallery
Tab Gallery has a compilation of christian, rock, and country tabs all in one place. Come visit us.