Guitar Tabs
song title    band name

Join Us Today!

Don't strum alone...
be a part of the largest online Christian music community. Browse thousands of guitar tabs and chat w/ musicians like yourself.


It's Free!

Bleach - Drive

This tab has not yet been rated for accuracy.Sorry, but you must be logged in to rate this tab.
Click here to log-in, or you can click here to register.
(Registration is free)

All songs owned by corresponding publishing company. If you make copies of any song on this website, be sure to report your usage to CCLI.
Song: Drive
Album: Static
Artist: Bleach
Copyright 1998 Songs on the Forefront (SESAC)
Tabbed by: Thomas McManus (tom0015@hotmail.com)

You'll probably have to listen to the CD to get all the
parts right on time, it's kinda hard to indicate in tab.


Chords used (all power chords):
  E  F#  G  G#  A  Bb  B  C#  D
e---------------------------------
B---------------------------------
G---------------------------------
D---------------------------------
A-2--4---5---6--7--8---9--11--12--
E-0--2---3---4--5--6---7--9---10--


Intro:
e---------------------------------
B---------------------------------
G---------------------------------
D-7-7-4-4-5-5-7--9-9-7-7-2-2-2----
A---------------------------------
E---------------------------------

Intro, part two:
A A F# F# G G A   B B A A E E E


Verse One:
G  F#
G  F#

Prechorus One:
B  Bb  A  G#  G

Chorus:
C#/D  D  D  D  \G  G  G
C#/D  D  D  D  \G  G  G
C#/D  D  D  D  \G  G  G
A  A  A  A

Intro, part two

Verse Two:
G  F#
G  F#

Prechorus Two:
B  Bb  A  G#  G

Chorus

Bridge:
B  B  *   Bb  Bb  *   A  A  *   G  G  /Bb  Bb       
B  B  *   Bb  Bb  *   A  A  *   G  G  /Bb  Bb  B

Play this where it says *
e---------------------------------
B---------------------------------
G---------------------------------
D--4b5r4--------------------------
A---------------------------------
E---------------------------------

Chorus x2

Intro, part two x2


Outro:
 scrape pick  C#/D
e---------------------------------
B---------------------------------
G---------------------------------
D---------------------------------
A-------------11/12---------------
E-3-3-3-------9-/10---------------

Comments about this tab

No comments/corrections found. Add your own

Complimentary Christian Ringtones
Dadamobile and CGR have teamed up to bring your favorite Christian artists right to your phone. Sign up today and get 10 complementary ringtones!
Tab Country
Did you know CGR has a sister site w/ country guitar tabs? Well we do! Its called Tab Country. It has a great archive with a lot of country tabs.
Rockin Tabs
Are you looking for a site that has rock guitar tabs? Then Rockintabs.com is the place for you. It is a budding site with many rock guitar tabs. Submit your tab today.
Tab Gallery
Tab Gallery has a compilation of christian, rock, and country tabs all in one place. Come visit us.