Guitar Tabs
song title    band name

Join Us Today!

Don't strum alone...
be a part of the largest online Christian music community. Browse thousands of guitar tabs and chat w/ musicians like yourself.


It's Free!

This tab has not yet been rated for accuracy.Sorry, but you must be logged in to rate this tab.
Click here to log-in, or you can click here to register.
(Registration is free)

All songs owned by corresponding publishing company. If you make copies of any song on this website, be sure to report your usage to CCLI.
Title: Lie, Lie, Lie
by: Poor Old Lu
CD: Straight Six (EP)
from: boze@longview.net
copyright: 1995 Carlotta Publishing/Poor Old Tunes (BMI)

INTRO (distorted):
|-------------------------------------|
|-------------------------------------|
|---9-9-8-6---------------------------|
|-----------9-8-6-6-8-6---------------|
|-----------------------9-7-7-6-------|
|-------------------------------9-7---|

VERSE 1 (clean electric):
B                    E
Tired of seven hours a day (yeah)
F#                        E                     F#
Weekends that go too fast
B                               E
I set my sights for boardwalk streets
         F#                        B
and a sunset that will last
B                            E
I grabbed my coat and told my friends
F#                        E                     F#
that I was going away
B                                          E
just a few long miles and a few good smiles
    F#                     B
and I'll have my love today


CHORUS (distorted):
|---------------------------------------------------7-6-----6----------------|
|-------------------------------------------------------9-9---9-7------------|
|--9-9-8-6------------------------------6-8-9-9-8-6---------------9-9-8-6----|
|----------9-8-6-6-8-6--------------9-------------------------------------9--|
|----------------------9-7-7-6-----------------------------------------------|
|------------------------------9-7-------------------------------------------|
(sung over tab)
Ooh, lie, lie, lie
Why do I look so hard?
Ooh, lie, lie, lie
Must I be so far?

VERSE 2 (clean electric):
B                                E
Intent on a life that is what I dream
F#                  E                   F#
I set out to be free
B                      E
Turned my cheek on my beliefs
         F#                       B
with whatever in front of me
B                       E
Sick of words like "trust" and "hope"
     F#                     E                   F#
and "hey man, you got to be good"
B                       E                        F#
But if I want I'll sit and stare all day
                          B
at the clouds like I wished I could

CHORUS

BRIDGE (distorted):
G#m                                     B
        And for just tonight
                         G#m
A place to rest my head
                        B
My eyes were heavy
                                        G#m
But I found no peace in this bed
                                  B
With the silence around
                        E
I felt so alone again
                                    F#
Well, I closed my eyes with lifted hands
                                 (E)
And I fell to my knees instead

SOLO (distorted):
> = hammer on
< = pull off
|---------------------------------------------
|---------------------------------------------
|-------------8-------------------------------
|--------9-11---11-9-11-11>13<11--9-9-9>10<9--
|---9-11--------------------------------------
|---------------------------------------------

-14-14-14>16-14-12-11-12<11--------------------------------|
------------------------------12-14-16-17-16-17-16-14-12---|
-----------------------------------------------------------|
-----------------------------------------------------------|
-----------------------------------------------------------|
-----------------------------------------------------------|


VERSE 3 (clean electric):
B                          E
Tired of tears and a broken heart
    F#                  E               F#
And love that fades too fast
  B                       E
I set my sights for golden streets
        F#                       B
and a joy that will ever last

CHORUS

CHORUS 2 (distorted):
|---------------------------------------------------7-6-----6--------------
|-------------------------------------------------------9-9---9-7----------
|--9-9-8-6------------------------------6-8-9-9-8-6---------------9-9-8-6--
|----------9-8-6-6-8-6--------------9--------------------------------------
|----------------------9-7-7-6---------------------------------------------
|------------------------------9-7-----------------------------------------

-7-7-9-11-11-11>12--11>12--11>12<11-----|
------------------------------------12--|
----------------------------------------|
----------------------------------------|
----------------------------------------|
----------------------------------------|
(sung over tab)
Ooh, lie, lie, lie
Lord, why do I look so hard?
Ooh, lie, lie, lie
Lord, you've never ever been far
You've never ever been far

CHORDS (from bottom up):
B       (224442)
E       (022100)
F#      (244322)
G#m     (466444)

NOTE: Everything should be correct, so listen to the CD if you're
confused.  If it's NOT correct, I'm sure you're smart enough to figure
it out.  God bless!

Comments about this tab

No comments/corrections found. Add your own

Complimentary Christian Ringtones
Dadamobile and CGR have teamed up to bring your favorite Christian artists right to your phone. Sign up today and get 10 complementary ringtones!
Tab Country
Did you know CGR has a sister site w/ country guitar tabs? Well we do! Its called Tab Country. It has a great archive with a lot of country tabs.
Rockin Tabs
Are you looking for a site that has rock guitar tabs? Then Rockintabs.com is the place for you. It is a budding site with many rock guitar tabs. Submit your tab today.
Tab Gallery
Tab Gallery has a compilation of christian, rock, and country tabs all in one place. Come visit us.