Guitar Tabs
song title    band name

Join Us Today!

Don't strum alone...
be a part of the largest online Christian music community. Browse thousands of guitar tabs and chat w/ musicians like yourself.


It's Free!

This tab has not yet been rated for accuracy.Sorry, but you must be logged in to rate this tab.
Click here to log-in, or you can click here to register.
(Registration is free)

All songs owned by corresponding publishing company. If you make copies of any song on this website, be sure to report your usage to CCLI.
I'll Try
artist: Polarboy
album: Back From Nowhere (special pre-release)
copyright rustproof records
transcribed by Nicholas Rivera (mex77@hotmail.com)


[verse]
            A             Asus  A
run away my dove, run away my dove
                  A            Asus A
getting easier to push and easy to shove
       A                Asus A             
easier still is learning to love
     A            Asus A  
run away, run away my dove


[verse]-stumming 
             A         Asus A -carries through
take away my shame, all my shame
                            Asus A 
music business about nothing but fame
                   Asus A   
as temptation calls my name 
                       Asus A
take away my shame, all my shame


[chorus]
         D               A   Asus  A
and i'll try to make it through    
         D               E
and i'll try to make it through  

[bridge] phaser/compression on A chord

and the darkness has reached for me, but You'll lift me up
from the deep, deep beneath


         D               A   Asus  A
and i'll try to make it through       [3x]
         D               E
and i'll try to make it through  

        strum        strum
e|-0-0--0----0---0-0----------|
B|-2-2--0----0---2-2-2-2-3-5--|
G|-2-2--2-/-4b5--2-2-x--------|
D|-2-2-----------2-2-x--------|
A|-0-0-----------0-0-0--------|
E|----------------------------|

        strum        strum & feedback
|-0-0--0----0---0------------------------------|
|-2-2--0----0---2------------------------------|
|-2-2--2-/-4b5--2------------------------------|
|-2-2-----------2------------------------------|
|-0-0-----------0------------------------------|
|---------------2r0-0-2r0-0-2-0-2-0-2----------|

|----------------------------------|
|--------------------------------5-|
|----------------------------------|
|-2-1-0----------------------------|
|-------4h5-5-4-2-2h4-2-0----------|
|-------------------------2-4-5----|

|---------------------------------------------------------|
|--------------------------------------2-5-7-9-10-12-14-15|
|-----------------------------------2-4-------------------|
|-2-1-0--------------------------2-4----------------------|
|-------4h5-5-4-2-2h4-2-0-----2-4-------------------------|
|--------------------------2-5----------------------------|


         D               A   Asus  A
and i'll try to make it through       [3x]
         D               E
and i'll try to make it through

Comments about this tab

No comments/corrections found. Add your own

Complimentary Christian Ringtones
Dadamobile and CGR have teamed up to bring your favorite Christian artists right to your phone. Sign up today and get 10 complementary ringtones!
Tab Country
Did you know CGR has a sister site w/ country guitar tabs? Well we do! Its called Tab Country. It has a great archive with a lot of country tabs.
Rockin Tabs
Are you looking for a site that has rock guitar tabs? Then Rockintabs.com is the place for you. It is a budding site with many rock guitar tabs. Submit your tab today.
Tab Gallery
Tab Gallery has a compilation of christian, rock, and country tabs all in one place. Come visit us.