Guitar Tabs
song title    band name

Join Us Today!

Don't strum alone...
be a part of the largest online Christian music community. Browse thousands of guitar tabs and chat w/ musicians like yourself.


It's Free!

This tab has not yet been rated for accuracy.Sorry, but you must be logged in to rate this tab.
Click here to log-in, or you can click here to register.
(Registration is free)

All songs owned by corresponding publishing company. If you make copies of any song on this website, be sure to report your usage to CCLI.
Song: Tribal
Artist: Payable on Death (P.O.D.)
Album: The Fundamental Elements of Southtown
Tabbed By: Jeremy

This is my first tab so bear with me. This is my interpretation of the
song, but I not saying its right.
 
                        > = Slide
                        

Intro: 3x and then on the 3rd time go right into chorus.        
E-----------------
B-----------------
G-----------------
D----2-0-2-0---2--
A----2-0-2-0---2--
D----2-0-2-0---2--

Chorus: 3x                                                                                      
E--------------------------------------------------------------------------
B--------------------------------------------------------------------------
G---------------------------------------------5-5-5-5-5-5-5-5--------------
D-----2-2-2-2-2-2-2-2-2-2-2-2-2-3-2-0-5-5-5-5-5-5-5-5-5-5-5-5-5-5-5-5------
A-----2-2-2-2-2-2-2-2-2-2-2-2-2-3-2-0-3-3-3-3-3-3-3-3-5-5-5-5-5-5-5-5------
D-----2-2-2-2-2-2-2-2-2-2-2-2-2-3-2-0---------------------5-5-5-5-5-5-5-5--

E------------------------------------------------------------------------   Last time  
B------------------------------------------------------------------------   play this.
G---------------------------------------------5-5-5-5-5-5-5-5------------
D-----2-2-2-2-2-2-2-2-2-2-2-2-2-3-2-0-5-5-5-5-5-5-5-5-2-0-2-0------------
A-----2-2-2-2-2-2-2-2-2-2-2-2-2-3-2-0-3-3-3-3-3-3-3-3-2-0-2-0------------
D-----2-2-2-2-2-2-2-2-2-2-2-2-2-3-2-0---------------------2-0-2-0--------

Verse: 6x
E-------------------------------               
B---------------7-7-7-7-8-------
G-----------7--7-7-7-7-7-7-7----
D--------9----------------------
A-----7-------------------------
D-------------------------------

Chorus: 4x

Verse: 4x

Verse: 4x
E--------------------------   
B--------------------------
G---------7-------7---7----
D-------9--------9---9-----
A-----7--------7---7-------
D--------------------------

Bridge 1: 4x
E---------------------------------------- 
B----------------------------------------
G----------------------------------------
D-----2-0-2----3-----0-5-0-0-0-0-0-0-0---
A-----2-0-2----3-----0-5-0-0-0-0-0-0-0---
D-----2-0-2----3-----0-5-0-0-0-0-0-0-0---

Bridge 2: 9x but on the 9th time play the line below
E--------------             
B--------------
G--------------
D-----2>3>5>0--
A-----2>3>5>0--
D-----2>3>5>0-

E-----------------
B-----------------
G-----------------
D-----0-----2-----
A-----0-----2-----
D-----0-----2-----

E--------------
B--------------
G--------------
D-----2-0-2-0-- Play this than go right back to the chorus.
A-----2-0-2-0--
D-----2-0-2-0--

Chorus: 4x      

Verse: 4x

All lyrics and Music by P.O.D. 1999 Souljah Music (BM)
A Timer Warner Company  1999 Atlantic Recording Corporation for the
United States.

Comments about this tab

Metallistically - 2004-03-14

This seems like the correct version. At least, all the riffs and licks are right if I know Marcos' style as well as I think I do.


Add a comment/correction

Complimentary Christian Ringtones
Dadamobile and CGR have teamed up to bring your favorite Christian artists right to your phone. Sign up today and get 10 complementary ringtones!
Tab Country
Did you know CGR has a sister site w/ country guitar tabs? Well we do! Its called Tab Country. It has a great archive with a lot of country tabs.
Rockin Tabs
Are you looking for a site that has rock guitar tabs? Then Rockintabs.com is the place for you. It is a budding site with many rock guitar tabs. Submit your tab today.
Tab Gallery
Tab Gallery has a compilation of christian, rock, and country tabs all in one place. Come visit us.