Guitar Tabs
song title    band name

Join Us Today!

Don't strum alone...
be a part of the largest online Christian music community. Browse thousands of guitar tabs and chat w/ musicians like yourself.


It's Free!

P.O.D. - Southtown

This tab has been rated a 4.29 out of 5 for accuracy. (7 votes)Sorry, but you must be logged in to rate this tab.
Click here to log-in, or you can click here to register.
(Registration is free)

All songs owned by corresponding publishing company. If you make copies of any song on this website, be sure to report your usage to CCLI.
Author/Artist: P.O.D.
Title: Southtown
Album: Fundamental Elements Of Southtown
Transcribed by: Darrick Hurst
Email: reciprocity81@hotmail.com

played in drop-d tuning

Intro: (4 times) 
-|-------------------------------------------------------------------|-
-|-------------------------------------------------------------------|-
-|-------------------------------------------------------------------|-
-|-2-2-2-2--3-3-3-3-3-3-3-3-3-3-3-3--2-2-2-2--0-0-0-0-0-0-0-0-0-0-0-0|-
-|-0-0-0-0--3-3-3-3-3-3-3-3-3-3-3-3--0-0-0-0--0-0-0-0-0-0-0-0-0-0-0-0|-
-|----------3-3-3-3-3-3-3-3-3-3-3-3-----------0-0-0-0-0-0-0-0-0-0-0-0|-

Verse: (Distortion 5 times) 
-|-----------------------------------------------------------------|-
-|-----------------------------------------------------------------|-
-|-----------------------------------------------------------------|-
-|-7\-3-3-3--3--3-3-3-3-7-7-7-7-0-0-0--0--0-0-0-0-7-7-7-7----------|-
-|-7\-3-3-3--3--3-3-3-3-7-7-7-7-0-0-0--0--0-0-0-0-7-7-7-7----------|-
-|-7\-3-3-3--3--3-3-3-3-7-7-7-7-0-0-0--0--0-0-0-0-7-7-7-7----------|-


-|----------------------------|-
-|----------6------5----------|-   Little riff before the chorus
-|----------x------x----------|-
-|----------3------2----------|-
-|----------------------------|-
-|--0-------------------------|-

Chorus:
-|-------------------------------------------------------------|- 
-|-----------8-8-8-8--------------8-8-8-8--------------5-5-5-5-|-
-|-----------x-x-x-x--------------x-x-x-x--------------x-x-x-x-|-
-|-3----3----5-5-5-5----3----3----5-5-5-5----0----0----2-2-2-2-|-
-|-3----3---------------3----3---------------0----0------------|-
-|-3----3---------------3----3---------------0----0------------|-


-|-------------------|-
-|-----------5-5-5-5-|-
-|-----------x-x-x-x-|-
-|-0----0----2-2-2-2-|-
-|-0----0------------|-
-|-0----0------------|-

2:35
-|----------------------------|-
-|------5----6---------5----6-|-
-|------x----x---------x----x-|-
-|------2----3---------2----3-|-
-|----------------------------|-
-|-0--------------0-----------|-


-|--------------------------|-
-|--------------------------|-
-|--------------------------|- Real Heavy Part
-|-0--2--3--0--2--3--x-xx-|- 
-|-0--2--3--0--2--3--x-xx-|-
-|-0--2--3--0--2--3--x-xx-|-

and there you have it. Let me know if this works for you, and in the 
meantime, have fun playing it. If you like P.O.D. you should check 
out Pillar (www.pillarmusic.com)

peace out
 Darrick

Comments about this tab

FIF50 - 2004-10-08

Hey, the intro is 7-3-7-0, amlost the same a the Verse.


tribalwarrior85 - 2005-01-25

Those are the same notes, either way you play the intro, but I think the one on the tab sounds better.


spacey35 - 2005-11-05

tune down one step(low-high):DGCFAD
SOUTHTOWN
intro:
e----------------------------------------------------------------
B----------------------------------------------------------------
G----------------------------------------------------------------
D4-4-4-4-----------------------------4-4-4-4-------------------------
A2-2-2-2---2-2-2-2-2-2-2-2-2-2-2-2---2-2-2-2---2-2-2-2-2-2-2-2-2-2-2-2-
E----------3-3-3-3-3-3-3-3-3-3-3-3-------------0-0-0-0-0-0-0-0-0-0-0-0- x4

verse:
e--------------------------------------------------------------
B--------------------------------------------------------------
G--------------------------------------------------------------
D4--5-5-5---5--5--5--5--5--4-4-4-4---------------------4-4-4-4-
A2--5-5-5---5--5--5--5--5--2-2-2-2--2-2-2--2--2-2-2-2--2-2-2-2-
E---3-3-3---3--3--3--3--3-----------0-0-0--0--0-0-0-0----------

pick this part w/fingers:
e--------------
B--------------
G---12---11----
D--------------
A---10----9----
E0-----------0-

Chorus:
e-----------------------------------------------------
B-----------------------------------------------------
G-----------------------------------------------------
D-----7-7-7-7------7-7-7-7------4-4-4-4-------4-4-4-4-
A5--5---------5--5---------2--2----------2--2---------
E3--3---------3--3---------0--0----------0--0--------- X3

BRIDGE (PART 2):
e--------------------------------------------------------------------
B--------------------------------------------------------------------
G--------------------------------------------------------------------
D--------------------------------------------------------------------
A-2---4---5---2---4---5---X--X---X--2---4---5---2---4---5---X--X---X- X3
E-0---2---3---0---2---3---X--X---X--0---2---3---0---2---3---X--X---X-

on the third time through end with this:
e---------------
B---------------
G---------------
D---------------
A-2---4---5---9-
E-0---2---3---7-

ENDING:
e-----------------------------------------------------------
B-----------------------------------------------------------
G------------------------------^----------------------------
D------------------------------7----------------------------
A-5--5--5----5----5--5--5--5------2--2--2----2----2--2--2--2
E-3--3--3----3----3--3--3--3------0--0--0----0----0--0--0--0

this is the correct version of the song....


Add a comment/correction

Complimentary Christian Ringtones
Dadamobile and CGR have teamed up to bring your favorite Christian artists right to your phone. Sign up today and get 10 complementary ringtones!
Tab Country
Did you know CGR has a sister site w/ country guitar tabs? Well we do! Its called Tab Country. It has a great archive with a lot of country tabs.
Rockin Tabs
Are you looking for a site that has rock guitar tabs? Then Rockintabs.com is the place for you. It is a budding site with many rock guitar tabs. Submit your tab today.
Tab Gallery
Tab Gallery has a compilation of christian, rock, and country tabs all in one place. Come visit us.