Guitar Tabs
song title    band name

Join Us Today!

Don't strum alone...
be a part of the largest online Christian music community. Browse thousands of guitar tabs and chat w/ musicians like yourself.


It's Free!

Bleach - Cold and Turning Blue

This tab has been rated a 4.00 out of 5 for accuracy. (1 vote)Sorry, but you must be logged in to rate this tab.
Click here to log-in, or you can click here to register.
(Registration is free)

All songs owned by corresponding publishing company. If you make copies of any song on this website, be sure to report your usage to CCLI.
Song: "Cold and Turning Blue"
Artist: Bleach
Album: Space
Copyright 1996 Songs on the ForeFront

Tab by: Evan Dickens
E-mail: stinger31@mailexcite.com

(INTRO) (first three chords are open, then distortion kicks in with
power chords)

Am  C  G  E/F

(VERSE 1) (lead guitar picks the open chords in verse) 

Am  C  G  E/F
Am  C  G  E/F
Am  C  G  E/F
Am  C  G  E/F

(CHORUS)

G/A  G/A  G/A

C  D  E  F  G/A  G/A  G/A
C  D  E  F     

(VERSE 2)

Am  C  G  E/F
Am  C  G  E/F
Am  C  G  E/F
Am  C  G  E/F

(CHORUS)

G/A  G/A  G/A

C  D  E  F  G/A  G/A  G/A
C  D  E  F   

(SOLO)

Yep, I finally got the solo done. It's almost perfect, but at some of
the quicker parts (like the last bar of the second and fourth lines),
you may have to mess around a bit. The rhythm is all power chords. It'll
be a lot easier for you if you just listen to the CD and follow along
here. Don't try to play it without playing along first. Sorry if it
looks confusing; I haven't tabbed too many solos before.

h = hammer-on
p = pull-off
^ = bend

          Am              C                      G                   
E          F
e--------|---------------|----------------------|--------------------|-------------------------|
B--------|---------------|----------------------|--------------------|----10-------------------|
G--------|---------------|----------------------|-7^9^7--7-7-5h7-7-5-|-7^9--^9-7p5h7-7p5h7^9---|
D--10p7--|-7-----5h7-7-7-|-7^8^7-7--7-7-5h7-7-5-|--------------------|-------------------------|
A--------|---------------|----------------------|--------------------|-------------------------|
E--------|---------------|----------------------|--------------------|-------------------------|

 Am                     C                      G                     
E         F
e----------------------|----------------------|----------------------|------------------------|
B----------------------|----------------------|----------------------|----10------------------|
G--------5-------------|--------5-------------|-7^9^7---7^-7^-7^-7^--|-7^9--^9-7p5h7-7p5h7^9--|
D--7-7-7---7-7-5h7p5---|--5h7-7---7-7-5h7p5---|----------------------|------------------------|
A--------------------7-|--------------------7-|----------------------|------------------------|
E----------------------|----------------------|----------------------|------------------------|

 Am                              C                      
e-------------------------------|-------------------------------|
B-------------------------------|-------------------------------|
G-------------------------------|-------------------------------|
D-------------------------5h7-7-|-------------------------5h7-7-|
A-----------------5h7-7-7-------|-----------------5h7-7-7-------|
E-5-5-5-5-5-8-8-8---------------|-5-5-5-5-5-8-8-8---------------|

 G                               E            F                      
e-------------------------------|---------------------------------|
B-------------------------------|---------------------------------|
G-------------------------------|---------------------------------|
D-------------------------5h7-7-|-5h7-7-7-7-7-5h7-7-7-7-7-5h7-7-7-|
A-----------------5h7-7-7-------|---------------------------------|
E-5-5-5-5-5-8-8-8---------------|---------------------------------|


 Am                            C                      
e--8p5-5-5--------------------|--8p5-5-5--------------------|
B----------8p5-5-5----5h8p5-5-|----------8p5-5-5----5h8p5-5-|
G------------------7^---------|------------------7^---------|
D-----------------------------|-----------------------------|
A-----------------------------|-----------------------------|
E-----------------------------|-----------------------------|

 G                               E              F        
e--8p5-5-5----------------8p5-5-|-----------------------------------------|
B----------8p5-5-5----5h8-------|---5h8---5h8---5h8---5h8---5h8-----------|
G------------------7^-----------|-7^----7^----7^----7^----7^----7^---7-7^-|
D-------------------------------|-----------------------------------------|
A-------------------------------|-----------------------------------------|
E-------------------------------|-----------------------------------------|

(CHORUS)

G/A  G/A  G/A

C  D  E  F  G/A  G/A  G/A
C  D  E  F  G/A  G/A  G/A
C  D  E  F     

One of my favorite songs in the world. I'm almost positive this tab is
perfect (excluding the mistakes in the solo, which shouldn't be too
numerous), but if you see need for corrections, or if you have something
to add, e-mail me at stinger31@mailexcite.com. I'd also really like to
hear from you if you get some use out of this tab.

God bless!

~stinger~

Comments about this tab

No comments/corrections found. Add your own

Complimentary Christian Ringtones
Dadamobile and CGR have teamed up to bring your favorite Christian artists right to your phone. Sign up today and get 10 complementary ringtones!
Tab Country
Did you know CGR has a sister site w/ country guitar tabs? Well we do! Its called Tab Country. It has a great archive with a lot of country tabs.
Rockin Tabs
Are you looking for a site that has rock guitar tabs? Then Rockintabs.com is the place for you. It is a budding site with many rock guitar tabs. Submit your tab today.
Tab Gallery
Tab Gallery has a compilation of christian, rock, and country tabs all in one place. Come visit us.