Guitar Tabs
song title    band name

Join Us Today!

Don't strum alone...
be a part of the largest online Christian music community. Browse thousands of guitar tabs and chat w/ musicians like yourself.


It's Free!

P.O.D. - Bullet the Blue Sky

This tab has been rated a 2.50 out of 5 for accuracy. (2 votes)Sorry, but you must be logged in to rate this tab.
Click here to log-in, or you can click here to register.
(Registration is free)

All songs owned by corresponding publishing company. If you make copies of any song on this website, be sure to report your usage to CCLI.
Author/Artist: P.O.D.
Title: Bullet the Blue Sky
Album: Fundamental Elements of Southtown
Transcribed by: Darrick Hurst
Email: reciprocity81@hotmail.com

This song is played in drop-d tuning, although it really doesnt matter
except on the dead strings (played open and palm muted) in the intro. The
whole song is mostly octaves, so its pretty easy, and its got a fun solo.
Rack up some good distortion, and have fun with it.

Intro:
e-|------------------------|-
B-|------------------------|- Palm mute the dead strings, 
G-|------------10------\---|- then hit the octave once,
D-|---x-x-x-xx-------\---|- hold, then slide off.
A-|---x-x-x-x--8-------\---|- (repeat 4x)
D-|---x-x-x-x--------------|-

I dont hear much going on in the verses guitar-wise other than the occasional
variation of the intro or an occasional strum to back up the bass

                                                                              
Chorus:
-|-------------------------------------------------------|-
-|-------------------------------------------------------|- (repeat a couple
-|--7--7--7--7-/-9--9--9--9-/-10-10-10-10-\-5--5--5--5---|- of times in the
-|--xxxx-/-xxxx-/-xxxx--\-xxxx---|- chorus)
-|--5--5--5--5-/-7--7--7--7-/-8--8--8--8--\-3--3--3--3---|-
-|-------------------------------------------------------|-
  

                                                                            
Solo:
-|--10----------10------------10------------10------------------------------|-
-|------10-----------10------------10------------10-------------------------|-
-|----------10-------------10-----------10-------------10---10/12~---10/12~-|-
-|--------------------------------------------------------------------------|-
-|--------------------------------------------------------------------------|-
-|--------------------------------------------------------------------------|-
                                                                              

-|-10---------10-----------10----------10-------------------------------------
-|-----10----------10----------10----------10---------------------------------
-|---------10-----------10---------10----------10---10/12~---10h12--10h12-----
-|----------------------------------------------------------------------------
-|----------------------------------------------------------------------------
-|----------------------------------------------------------------------------
                                                                          

---------------------------------------------|--------------------------------
---------------------------------------------|----13~----12-\-10-------------- 
---10h12--10h12--10h12--10h12--10h12--10h12--|----------------------10b-------
---------------------------------------------|--------------------------------
---------------------------------------------|--------------------------------
---------------------------------------------|--------------------------------


-|--------------11h13--11h13--11h13--11h13--11h13--11h13--11h13--11h13-/14b-|-
-|-13~--12-\-10-------------------------------------------------------------|-
-|--------------------------------------------------------------------------|-
-|--------------------------------------------------------------------------|-
-|--------------------------------------------------------------------------|-
-|--------------------------------------------------------------------------|-

after the solo go back to the Chorus, and youre good to go.
(If you like P.O.D. check out Pillar - www.pillarmusic.com)

Peace
Darrick

Comments about this tab

No comments/corrections found. Add your own

Complimentary Christian Ringtones
Dadamobile and CGR have teamed up to bring your favorite Christian artists right to your phone. Sign up today and get 10 complementary ringtones!
Tab Country
Did you know CGR has a sister site w/ country guitar tabs? Well we do! Its called Tab Country. It has a great archive with a lot of country tabs.
Rockin Tabs
Are you looking for a site that has rock guitar tabs? Then Rockintabs.com is the place for you. It is a budding site with many rock guitar tabs. Submit your tab today.
Tab Gallery
Tab Gallery has a compilation of christian, rock, and country tabs all in one place. Come visit us.